  0
SECTION
  2
HEADER
  9
$ACADVER
  1
AC2.10
  9
$INSBASE
 10
0.000000
 20
0.000000
  9
$EXTMIN
 10
-7.800000
 20
57.800000
  9
$EXTMAX
 10
150.400000
 20
115.400000
  9
$LIMMIN
 10
-10.000000
 20
-3.000000
  9
$LIMMAX
 10
180.000000
 20
120.000000
  9
$VIEWCTR
 10
73.605633
 20
77.987188
  9
$VIEWSIZE
 40
122.374376
  9
$SNAPMODE
 70
     1
  9
$SNAPUNIT
 10
0.100000
 20
0.100000
  9
$SNAPBASE
 10
0.000000
 20
0.000000
  9
$SNAPANG
 50
0.0
  9
$SNAPSTYLE
 70
     0
  9
$SNAPISOPAIR
 70
     0
  9
$GRIDMODE
 70
     0
  9
$GRIDUNIT
 10
1.000000
 20
1.000000
  9
$ORTHOMODE
 70
     1
  9
$REGENMODE
 70
     1
  9
$FILLMODE
 70
     0
  9
$QTEXTMODE
 70
     0
  9
$DRAGMODE
 70
     1
  9
$LTSCALE
 40
2.000000
  9
$TEXTSIZE
 40
6.300000
  9
$TRACEWID
 40
0.050000
  9
$CLAYER
  8
0
  9
$LUNITS
 70
     2
  9
$LUPREC
 70
     0
  9
$AXISMODE
 70
     0
  9
$AXISUNIT
 10
0.000000
 20
0.000000
  9
$SKETCHINC
 40
0.100000
  9
$FILLETRAD
 40
0.300000
  9
$AUNITS
 70
     0
  9
$AUPREC
 70
     0
  9
$TEXTSTYLE
  7
STANDARD
  9
$OSMODE
 70
     0
  9
$ATTMODE
 70
     1
  9
$DIMSCALE
 40
1.000000
  9
$DIMASZ
 40
0.180000
  9
$DIMEXO
 40
0.062500
  9
$DIMDLI
 40
0.380000
  9
$DIMEXE
 40
0.180000
  9
$DIMTP
 40
0.000000
  9
$DIMTM
 40
0.000000
  9
$DIMTXT
 40
0.180000
  9
$DIMCEN
 40
0.090000
  9
$DIMTSZ
 40
0.000000
  9
$DIMTOL
 70
     0
  9
$DIMLIM
 70
     0
  9
$DIMTIH
 70
     1
  9
$DIMTOH
 70
     1
  9
$DIMSE1
 70
     0
  9
$DIMSE2
 70
     0
  9
$DIMTAD
 70
     0
  9
$LIMCHECK
 70
     0
  9
$MENU
  1
ACAD
  9
$ELEVATION
 40
0.000000
  9
$THICKNESS
 40
0.000000
  9
$VIEWDIR
 10
0.000000
 20
0.000000
 30
1.000000
  9
$BLIPMODE
 70
     1
  9
$DIMZIN
 70
     1
  9
$DIMRND
 40
0.000000
  9
$DIMDLE
 40
0.000000
  9
$COORDS
 70
 -8192
  9
$CECOLOR
 62
 16481
  9
$CELTYPE
  6
BYBLOCK
  9
$USRTIMER
 70
-13108
  9
$FASTZOOM
 70
 19660
  9
$SKPOLY
 70
 16438
  9
$ANGBASE
 50
-3.250114170885457990000000000000000000000e+279
  9
$ANGDIR
 70
 16469
  9
$PDMODE
 70
     1
  9
$PDSIZE
 40
0.000000
  9
$PLINEWID
 40
-0.000000
  9
$DIMBLK
  1
劔咬U@
  9
$DIMALT
 70
    21
  9
$DIMALTD
 70
   -19
  9
$DIMASO
 70
    97
  9
$DIMSHO
 70
    64
  9
$DIMPOST
  1
yﾞa育T@
  9
$DIMAPOST
  1

  9
$DIMALTF
 40
80.000000
  9
$DIMLFAC
 40
0.000000
  9
$SPLINESEGS
 70
     0
  9
$SPLFRAME
 70
     0
  9
$ATTREQ
 70
 -8192
  9
$ATTDIA
 70
    97
  0
ENDSEC
  0
SECTION
  2
TABLES
  0
TABLE
  2
LTYPE
 70
     2
  0
LTYPE
  2
CONTINUOUS
 70
    64
  3
Solid line
 72
    65
 73
     0
 40
0.000000
  0
LTYPE
  2
HIDDEN
 70
    64
  3
_ _ _ _ _ _ _ _ _ _ _ _ _ _ _ _ _ _ _ _ _ _ _
 72
    65
 73
     2
 40
0.375000
 49
0.250000
 49
-0.125000
  0
ENDTAB
  0
TABLE
  2
LAYER
 70
     3
  0
LAYER
  2
0
 70
    64
 62
     1
  6
CONTINUOUS
  0
LAYER
  2
1
 70
     0
 62
     1
  6
HIDDEN
  0
LAYER
  2
HIDDEN
 70
    64
 62
     1
  6
HIDDEN
  0
ENDTAB
  0
TABLE
  2
STYLE
 70
     1
  0
STYLE
  2
STANDARD
 70
    64
 40
0.000000
 41
1.000000
 50
0.000000
 71
     0
 42
6.300000
  3
TXT
  4

  0
ENDTAB
  0
TABLE
  2
VIEW
 70
     0
  0
ENDTAB
  0
ENDSEC
  0
SECTION
  2
BLOCKS
  0
BLOCK
  8
0
  2
WIN
 70
    64
 10
19.500000
 20
95.400000
  0
LINE
  8
0
 10
20.400000
 20
95.400000
 11
19.500000
 21
95.400000
  0
LINE
  8
0
 10
20.400000
 20
96.300000
 11
20.400000
 21
95.400000
  0
LINE
  8
0
 10
19.500000
 20
96.300000
 11
20.400000
 21
96.300000
  0
LINE
  8
0
 10
19.500000
 20
95.400000
 11
19.500000
 21
96.300000
  0
ENDBLK
  8
0
  0
BLOCK
  8
0
  2
R
 70
    64
 62
     0
 10
21.100000
 20
104.100000
  0
LINE
  8
0
 62
     0
 10
24.900000
 20
104.300000
 11
21.000000
 21
104.300000
  0
LINE
  8
0
 62
     0
 10
21.000000
 20
104.500000
 11
24.900000
 21
104.500000
  0
LINE
  8
0
 62
     0
 10
24.900000
 20
104.700000
 11
21.000000
 21
104.700000
  0
LINE
  8
0
 62
     0
 10
21.000000
 20
104.900000
 11
24.900000
 21
104.900000
  0
LINE
  8
0
 62
     0
 10
24.800000
 20
104.900000
 11
24.800000
 21
104.100000
  0
LINE
  8
0
 62
     0
 10
23.700000
 20
104.900000
 11
23.700000
 21
104.100000
  0
LINE
  8
0
 62
     0
 10
23.700000
 20
104.200000
 11
23.700000
 21
104.100000
  0
LINE
  8
0
 62
     0
 10
21.100000
 20
104.900000
 11
21.100000
 21
104.100000
  0
LINE
  8
0
 62
     0
 10
22.500000
 20
104.900000
 11
22.500000
 21
104.100000
  0
LINE
  8
0
 62
     0
 10
24.800000
 20
104.100000
 11
24.800000
 21
104.000000
  0
ENDBLK
  8
0
  0
ENDSEC
  0
SECTION
  2
ENTITIES
  0
LINE
  8
0
 10
-4.000000
 20
80.000000
 11
143.000000
 21
80.000000
  0
LINE
  8
0
 10
143.000000
 20
80.000000
 11
150.000000
 21
88.000000
  0
LINE
  8
0
 10
22.300000
 20
87.900000
 11
-5.300000
 21
87.900000
  0
LINE
  8
0
 10
-5.300000
 20
87.900000
 11
-4.000000
 21
80.000000
  0
SOLID
  8
0
 10
-4.058612
 20
80.356178
 11
143.408850
 21
80.467257
 12
-4.000000
 22
80.000000
 13
143.000000
 23
80.000000
  0
LINE
  8
0
 10
143.000000
 20
80.000000
 11
147.600000
 21
80.000000
  0
ARC
  8
0
 10
133.964099
 20
89.692992
 40
19.693096
 50
269.813509
 51
317.548018
  0
ARC
  8
0
 10
147.492857
 20
78.095865
 40
1.907147
 50
315.867209
 51
86.779448
  0
LINE
  8
0
 10
148.494517
 20
76.400702
 11
148.861670
 21
76.767873
  0
LINE
  8
0
 10
133.900000
 20
70.000000
 11
4.000000
 21
70.000000
  0
ARC
  8
0
 10
4.000000
 20
72.000000
 40
2.000000
 50
180.000000
 51
270.000000
  0
LINE
  8
0
 10
2.000000
 20
72.000000
 11
2.000000
 21
73.000000
  0
LINE
  8
0
 10
2.000000
 20
73.000000
 11
5.000000
 21
74.000000
  0
LINE
  8
0
 10
5.000000
 20
76.000000
 11
-4.000000
 21
79.000000
  0
LINE
  8
0
 10
-4.000000
 20
79.000000
 11
-4.000000
 21
80.000000
  0
LINE
  8
0
 10
-4.000000
 20
79.000000
 11
-3.800000
 21
77.800000
  0
LINE
  8
0
 10
-3.800000
 20
77.800000
 11
-1.200000
 21
77.800000
  0
LINE
  8
0
 10
-1.200000
 20
77.800000
 11
-1.120000
 21
78.040000
  0
LINE
  8
0
 10
-3.800000
 20
77.700000
 11
-1.200000
 21
77.700000
  0
LINE
  8
0
 10
-1.200000
 20
77.700000
 11
-1.700000
 21
70.400000
  0
LINE
  8
0
 10
-1.700000
 20
70.400000
 11
-3.600000
 21
70.400000
  0
LINE
  8
0
 10
-3.600000
 20
70.400000
 11
-3.800000
 21
77.700000
  0
ARC
  8
0
 10
4.775000
 20
75.000000
 40
1.025000
 50
282.680383
 51
77.319617
  0
LINE
  8
0
 10
-0.800000
 20
72.400000
 11
4.500000
 21
72.400000
  0
ARC
  8
0
 10
0.850000
 20
72.550000
 40
0.353553
 50
98.130102
 51
171.869898
  0
ARC
  8
0
 10
0.850000
 20
72.250000
 40
0.353553
 50
188.130102
 51
261.869898
  0
LINE
  8
0
 10
0.500000
 20
72.200000
 11
0.500000
 21
72.600000
  0
LINE
  8
0
 10
0.800000
 20
72.200000
 11
0.800000
 21
70.400000
  0
LINE
  8
0
 10
0.800000
 20
73.100000
 11
0.800000
 21
74.500000
  0
ARC
  8
0
 10
0.900000
 20
74.500000
 40
0.100000
 50
360.000000
 51
180.000000
  0
ARC
  8
0
 10
0.900000
 20
70.400000
 40
0.100000
 50
180.000000
 51
0.000000
  0
ARC
  8
0
 10
-4.450000
 20
72.016667
 40
5.989110
 50
6.551484
 51
24.496738
  0
ARC
  8
0
 10
-2.244444
 20
72.277778
 40
3.748662
 50
329.939153
 51
357.281767
  0
LINE
  8
0
 10
0.900000
 20
74.600000
 11
0.900000
 21
73.600000
  0
LINE
  8
0
 10
0.800000
 20
72.900000
 11
1.400000
 21
71.900000
  0
ARC
  8
0
 10
1.150000
 20
72.850000
 40
0.353553
 50
98.130102
 51
171.869898
  0
ARC
  8
0
 10
1.050000
 20
71.950000
 40
0.353553
 50
278.130102
 51
351.869898
  0
LINE
  8
0
 10
1.100000
 20
71.600000
 11
1.100000
 21
73.200000
  0
LINE
  8
0
 10
1.500000
 20
72.700000
 11
1.100000
 21
72.900000
  0
ARC
  8
0
 10
-2.887500
 20
72.437500
 40
4.300763
 50
331.721802
 51
355.499118
  0
LINE
  8
0
 10
1.500000
 20
71.800000
 11
2.300000
 21
71.800000
  0
LINE
  8
0
 10
1.500000
 20
73.000000
 11
2.300000
 21
73.000000
  0
ARC
  8
0
 10
2.300000
 20
72.400000
 40
0.600000
 50
270.000000
 51
90.000000
  0
LINE
  8
0
 10
8.400000
 20
89.200000
 11
1.100000
 21
89.200000
  0
LINE
  8
0
 10
1.100000
 20
89.200000
 11
1.100000
 21
87.900000
  0
ARC
  8
0
 10
8.400000
 20
90.200000
 40
1.000000
 50
270.000000
 51
0.000000
  0
LINE
  8
0
 10
20.500000
 20
97.500000
 11
25.700000
 21
97.500000
  0
LINE
  8
0
 10
25.700000
 20
97.500000
 11
25.700000
 21
99.400000
  0
LINE
  8
0
 10
25.700000
 20
99.400000
 11
20.500000
 21
99.400000
  0
LINE
  8
0
 10
20.500000
 20
99.400000
 11
20.500000
 21
97.500000
  0
LINE
  8
0
 10
20.500000
 20
99.400000
 11
20.500000
 21
100.600000
  0
LINE
  8
0
 10
20.500000
 20
100.600000
 11
26.200000
 21
100.600000
  0
LINE
  8
0
 10
26.200000
 20
100.600000
 11
25.700000
 21
99.400000
  0
LINE
  8
0
 10
26.300000
 20
98.100000
 11
26.300000
 21
99.400000
  0
LINE
  8
0
 10
26.300000
 20
99.400000
 11
25.700000
 21
99.400000
  0
LINE
  8
0
 10
26.300000
 20
99.400000
 11
26.800000
 21
100.600000
  0
LINE
  8
0
 10
26.800000
 20
100.600000
 11
26.200000
 21
100.600000
  0
LINE
  8
0
 10
26.800000
 20
100.600000
 11
26.700000
 21
100.900000
  0
LINE
  8
0
 10
26.700000
 20
100.900000
 11
20.500000
 21
100.700000
  0
LINE
  8
0
 10
20.500000
 20
100.700000
 11
20.500000
 21
100.600000
  0
LINE
  8
0
 10
20.500000
 20
100.600000
 11
17.800000
 21
100.600000
  0
LINE
  8
0
 10
25.900000
 20
99.500000
 11
26.200000
 21
99.500000
  0
LINE
  8
0
 10
26.200000
 20
99.500000
 11
26.600000
 21
100.500000
  0
LINE
  8
0
 10
26.600000
 20
100.500000
 11
26.300000
 21
100.500000
  0
LINE
  8
0
 10
26.300000
 20
100.500000
 11
25.900000
 21
99.500000
  0
LINE
  8
0
 10
25.600000
 20
99.500000
 11
26.000000
 21
100.500000
  0
LINE
  8
0
 10
26.000000
 20
100.500000
 11
25.200000
 21
100.500000
  0
LINE
  8
0
 10
25.200000
 20
100.500000
 11
25.200000
 21
99.500000
  0
LINE
  8
0
 10
25.200000
 20
99.500000
 11
25.600000
 21
99.500000
  0
LINE
  8
0
 10
21.500000
 20
99.500000
 11
21.500000
 21
100.400000
  0
LINE
  8
0
 10
21.500000
 20
100.400000
 11
22.400000
 21
100.400000
  0
LINE
  8
0
 10
22.400000
 20
100.400000
 11
22.400000
 21
99.500000
  0
LINE
  8
0
 10
22.400000
 20
99.500000
 11
21.500000
 21
99.500000
  0
SOLID
  8
0
 10
21.500000
 20
100.400000
 11
22.300000
 21
100.400000
 12
21.500000
 22
100.300000
 13
22.200000
 23
100.300000
  0
SOLID
  8
0
 10
21.500000
 20
100.300000
 11
21.600000
 21
100.300000
 12
21.500000
 22
99.500000
 13
21.600000
 23
99.600000
  0
SOLID
  8
0
 10
23.000000
 20
100.300000
 11
23.100000
 21
100.300000
 12
23.000000
 22
99.500000
 13
23.100000
 23
99.600000
  0
SOLID
  8
0
 10
23.000000
 20
100.400000
 11
23.800000
 21
100.400000
 12
23.000000
 22
100.300000
 13
23.700000
 23
100.300000
  0
LINE
  8
0
 10
23.900000
 20
99.500000
 11
23.000000
 21
99.500000
  0
LINE
  8
0
 10
23.900000
 20
100.400000
 11
23.900000
 21
99.500000
  0
LINE
  8
0
 10
23.000000
 20
100.400000
 11
23.900000
 21
100.400000
  0
LINE
  8
0
 10
23.000000
 20
99.500000
 11
23.000000
 21
100.400000
  0
LINE
  8
0
 10
24.200000
 20
99.400000
 11
24.200000
 21
100.500000
  0
LINE
  8
0
 10
24.200000
 20
100.500000
 11
25.000000
 21
100.500000
  0
LINE
  8
0
 10
25.000000
 20
100.500000
 11
25.000000
 21
99.400000
  0
LINE
  8
0
 10
24.300000
 20
100.400000
 11
24.900000
 21
100.400000
  0
LINE
  8
0
 10
24.900000
 20
100.400000
 11
24.900000
 21
99.600000
  0
LINE
  8
0
 10
24.900000
 20
99.600000
 11
24.300000
 21
99.600000
  0
LINE
  8
0
 10
24.300000
 20
99.600000
 11
24.300000
 21
100.400000
  0
LINE
  8
0
 10
27.000000
 20
98.100000
 11
25.700000
 21
98.100000
  0
LINE
  8
0
 10
27.000000
 20
98.100000
 11
27.000000
 21
87.900000
  0
LINE
  8
0
 10
9.400000
 20
98.100000
 11
9.400000
 21
90.200000
  0
LINE
  8
0
 10
3.800000
 20
95.700000
 11
3.800000
 21
89.200000
  0
LINE
  8
0
 10
6.750000
 20
102.700000
 11
6.600000
 21
103.600000
  0
LINE
  8
0
 10
6.750000
 20
102.700000
 11
6.900000
 21
103.600000
  0
ARC
  8
0
 10
6.750000
 20
103.600000
 40
0.150000
 50
0.000000
 51
180.000000
  0
ARC
  8
0
 10
6.285277
 20
103.485456
 40
0.150000
 50
27.692300
 51
207.692300
  0
LINE
  8
0
 10
6.703528
 20
102.688546
 11
6.418095
 21
103.555165
  0
LINE
  8
0
 10
6.703528
 20
102.688546
 11
6.152459
 21
103.415748
  0
ARC
  8
0
 10
5.927016
 20
103.168065
 40
0.150000
 50
55.384600
 51
235.384600
  0
LINE
  8
0
 10
6.667702
 20
102.656806
 11
6.012226
 21
103.291513
  0
LINE
  8
0
 10
6.667702
 20
102.656806
 11
5.841807
 21
103.044617
  0
ARC
  8
0
 10
5.757291
 20
102.720537
 40
0.150000
 50
83.076900
 51
263.076900
  0
LINE
  8
0
 10
6.650729
 20
102.612054
 11
5.775372
 21
102.869443
  0
LINE
  8
0
 10
6.650729
 20
102.612054
 11
5.739211
 21
102.571631
  0
ARC
  8
0
 10
5.814984
 20
102.245396
 40
0.150000
 50
110.769200
 51
290.769200
  0
LINE
  8
0
 10
6.656498
 20
102.564540
 11
5.761793
 21
102.385648
  0
LINE
  8
0
 10
6.656498
 20
102.564540
 11
5.868174
 21
102.105143
  0
ARC
  8
0
 10
6.086877
 20
101.851490
 40
0.150000
 50
138.461500
 51
318.461500
  0
LINE
  8
0
 10
6.683688
 20
102.525149
 11
5.974600
 21
101.950958
  0
LINE
  8
0
 10
6.683688
 20
102.525149
 11
6.199153
 21
101.752021
  0
ARC
  8
0
 10
6.510684
 20
101.629058
 40
0.150000
 50
166.153800
 51
346.153800
  0
LINE
  8
0
 10
6.726068
 20
102.502906
 11
6.365042
 21
101.664956
  0
LINE
  8
0
 10
6.726068
 20
102.502906
 11
6.656325
 21
101.593161
  0
ARC
  8
0
 10
6.989315
 20
101.629058
 40
0.150000
 50
193.846100
 51
13.846100
  0
LINE
  8
0
 10
6.773931
 20
102.502906
 11
6.843673
 21
101.593161
  0
LINE
  8
0
 10
6.773931
 20
102.502906
 11
7.134956
 21
101.664955
  0
ARC
  8
0
 10
7.513122
 20
101.751489
 40
0.150000
 50
221.538400
 51
41.538400
  0
LINE
  8
0
 10
6.916312
 20
102.425149
 11
7.400845
 21
101.652020
  0
LINE
  8
0
 10
6.916312
 20
102.425149
 11
7.625399
 21
101.850957
  0
ARC
  8
0
 10
7.685016
 20
102.245394
 40
0.150000
 50
249.230700
 51
69.230700
  0
LINE
  8
0
 10
6.843502
 20
102.564539
 11
7.631825
 21
102.105142
  0
LINE
  8
0
 10
6.843502
 20
102.564539
 11
7.738207
 21
102.385646
  0
ARC
  8
0
 10
7.742709
 20
102.720535
 40
0.150000
 50
276.923000
 51
96.923000
  0
LINE
  8
0
 10
6.849271
 20
102.612054
 11
7.760789
 21
102.571629
  0
LINE
  8
0
 10
6.849271
 20
102.612054
 11
7.724629
 21
102.869442
  0
ARC
  8
0
 10
7.572985
 20
103.168064
 40
0.150000
 50
304.615300
 51
124.615300
  0
LINE
  8
0
 10
6.832298
 20
102.656806
 11
7.658194
 21
103.044616
  0
LINE
  8
0
 10
6.832298
 20
102.656806
 11
7.487775
 21
103.291511
  0
ARC
  8
0
 10
7.214725
 20
103.485455
 40
0.150000
 50
332.307600
 51
152.307600
  0
LINE
  8
0
 10
6.796472
 20
102.688546
 11
7.347543
 21
103.415747
  0
LINE
  8
0
 10
6.796472
 20
102.688546
 11
7.081906
 21
103.555164
  0
ARC
  8
0
 10
6.750000
 20
102.600000
 40
1.250000
 50
326.309932
 51
296.565051
  0
ARC
  8
0
 10
7.484815
 20
101.767614
 40
0.335410
 50
238.390364
 51
24.484619
  0
LINE
  8
0
 10
7.500000
 20
101.100000
 11
7.400000
 21
100.600000
  0
LINE
  8
0
 10
7.500000
 20
101.100000
 11
7.600000
 21
100.600000
  0
ARC
  8
0
 10
7.500000
 20
100.600000
 40
0.100000
 50
180.000000
 51
360.000000
  0
LINE
  8
0
 10
7.800000
 20
100.200000
 11
9.100000
 21
100.200000
  0
LINE
  8
0
 10
7.800000
 20
100.100000
 11
9.100000
 21
100.100000
  0
LINE
  8
0
 10
7.800000
 20
100.000000
 11
9.100000
 21
100.000000
  0
LINE
  8
0
 10
7.800000
 20
100.100000
 11
9.100000
 21
100.100000
  0
LINE
  8
0
 10
7.800000
 20
99.800000
 11
9.100000
 21
99.800000
  0
LINE
  8
0
 10
7.800000
 20
99.700000
 11
9.100000
 21
99.700000
  0
LINE
  8
0
 10
7.800000
 20
99.800000
 11
9.100000
 21
99.800000
  0
LINE
  8
0
 10
7.800000
 20
99.900000
 11
9.100000
 21
99.900000
  0
LINE
  8
0
 10
7.800000
 20
99.300000
 11
9.100000
 21
99.300000
  0
LINE
  8
0
 10
7.800000
 20
99.200000
 11
9.100000
 21
99.200000
  0
LINE
  8
0
 10
7.800000
 20
99.100000
 11
9.100000
 21
99.100000
  0
LINE
  8
0
 10
7.800000
 20
99.200000
 11
9.100000
 21
99.200000
  0
LINE
  8
0
 10
7.800000
 20
99.500000
 11
9.100000
 21
99.500000
  0
LINE
  8
0
 10
7.800000
 20
99.400000
 11
9.100000
 21
99.400000
  0
LINE
  8
0
 10
7.800000
 20
99.500000
 11
9.100000
 21
99.500000
  0
LINE
  8
0
 10
7.800000
 20
99.600000
 11
9.100000
 21
99.600000
  0
LINE
  8
0
 10
7.800000
 20
99.100000
 11
7.800000
 21
100.200000
  0
LINE
  8
0
 10
9.100000
 20
100.200000
 11
9.100000
 21
99.100000
  0
INSERT
  8
0
  2
WIN
 10
11.600000
 20
95.500000
 41
0.800000
  0
INSERT
  8
0
  2
WIN
 10
18.300000
 20
92.900000
 41
0.800000
  0
INSERT
  8
0
  2
WIN
 10
15.100000
 20
95.500000
 41
0.800000
  0
INSERT
  8
0
  2
WIN
 10
16.000000
 20
95.500000
 41
0.800000
  0
INSERT
  8
0
  2
WIN
 10
18.700000
 20
95.500000
 41
0.800000
  0
INSERT
  8
0
  2
WIN
 10
23.000000
 20
95.500000
 41
0.800000
  0
INSERT
  8
0
  2
WIN
 10
13.700000
 20
92.900000
 41
0.800000
  0
INSERT
  8
0
  2
WIN
 10
12.800000
 20
92.900000
 41
0.800000
  0
INSERT
  8
0
  2
WIN
 10
17.000000
 20
92.900000
 41
0.800000
  0
INSERT
  8
0
  2
WIN
 10
23.400000
 20
92.900000
 41
0.800000
  0
INSERT
  8
0
  2
WIN
 10
22.500000
 20
92.900000
 41
0.800000
  0
INSERT
  8
0
  2
WIN
 10
13.700000
 20
90.200000
 41
0.800000
  0
INSERT
  8
0
  2
WIN
 10
12.800000
 20
90.200000
 41
0.800000
  0
INSERT
  8
0
  2
WIN
 10
15.600000
 20
90.200000
 41
0.800000
  0
INSERT
  8
0
  2
WIN
 10
2.000000
 20
88.000000
 41
0.500000
 42
0.700000
  0
INSERT
  8
0
  2
WIN
 10
6.300000
 20
88.000000
 41
0.500000
 42
0.700000
  0
INSERT
  8
0
  2
WIN
 10
7.500000
 20
88.000000
 41
0.500000
 42
0.700000
  0
INSERT
  8
0
  2
WIN
 10
13.200000
 20
88.000000
 41
0.500000
 42
0.700000
  0
INSERT
  8
0
  2
WIN
 10
18.900000
 20
88.000000
 41
0.500000
 42
0.700000
  0
INSERT
  8
0
  2
WIN
 10
21.200000
 20
88.000000
 41
0.500000
 42
0.700000
  0
INSERT
  8
0
  2
WIN
 10
25.400000
 20
88.000000
 41
0.500000
 42
0.700000
  0
LINE
  8
0
 10
17.800000
 20
101.400000
 11
26.700000
 21
101.400000
  0
LINE
  8
0
 10
17.800000
 20
101.200000
 11
26.700000
 21
101.200000
  0
LINE
  8
0
 10
17.800000
 20
101.000000
 11
26.700000
 21
101.000000
  0
LINE
  8
0
 10
17.800000
 20
100.800000
 11
23.400000
 21
100.800000
  0
LINE
  8
0
 10
17.900000
 20
101.400000
 11
17.900000
 21
100.600000
  0
LINE
  8
0
 10
19.300000
 20
101.400000
 11
19.300000
 21
100.600000
  0
LINE
  8
0
 10
20.800000
 20
101.400000
 11
20.800000
 21
100.700000
  0
LINE
  8
0
 10
22.300000
 20
101.400000
 11
22.300000
 21
100.800000
  0
LINE
  8
0
 10
23.900000
 20
101.400000
 11
23.900000
 21
100.800000
  0
LINE
  8
0
 10
25.400000
 20
101.400000
 11
25.400000
 21
100.900000
  0
LINE
  8
0
 10
26.600000
 20
101.400000
 11
26.600000
 21
100.900000
  0
LINE
  8
0
 10
20.500000
 20
100.700000
 11
21.300000
 21
106.700000
  0
LINE
  8
0
 10
21.300000
 20
106.700000
 11
24.200000
 21
106.700000
  0
LINE
  8
0
 10
24.200000
 20
106.700000
 11
24.200000
 21
106.600000
  0
LINE
  8
0
 10
24.200000
 20
106.600000
 11
21.300000
 21
106.500000
  0
LINE
  8
0
 10
21.800000
 20
106.500000
 11
20.700000
 21
101.700000
  0
LINE
  8
0
 10
22.295368
 20
106.534323
 11
23.100000
 21
100.800000
  0
LINE
  8
0
 10
24.800000
 20
104.000000
 11
20.898253
 21
103.686900
  0
LINE
  8
0
 10
24.000000
 20
107.500000
 11
24.000000
 21
106.700000
  0
LINE
  8
0
 10
24.000000
 20
106.800000
 11
24.000000
 21
106.700000
  0
LINE
  8
0
 10
24.000000
 20
106.700000
 11
21.300000
 21
106.700000
  0
LINE
  8
0
 10
21.400000
 20
107.500000
 11
21.400000
 21
106.700000
  0
LINE
  8
0
 10
22.800000
 20
107.500000
 11
22.800000
 21
106.700000
  0
LINE
  8
0
 10
21.300000
 20
107.500000
 11
24.100000
 21
107.500000
  0
LINE
  8
0
 10
24.100000
 20
107.300000
 11
21.300000
 21
107.300000
  0
LINE
  8
0
 10
21.300000
 20
107.100000
 11
24.100000
 21
107.100000
  0
LINE
  8
0
 10
24.100000
 20
106.900000
 11
21.300000
 21
106.900000
  0
LINE
  8
0
 10
24.600000
 20
105.600000
 11
24.300000
 21
105.600000
  0
LINE
  8
0
 10
24.300000
 20
105.600000
 11
24.400000
 21
104.300000
  0
LINE
  8
0
 10
24.200000
 20
105.800000
 11
24.300000
 21
105.600000
  0
LINE
  8
0
 10
24.600000
 20
105.600000
 11
24.700000
 21
105.800000
  0
LINE
  8
0
 10
25.500000
 20
105.800000
 11
23.300000
 21
105.800000
  0
LINE
  8
0
 10
23.300000
 20
105.800000
 11
23.300000
 21
106.100000
  0
LINE
  8
0
 10
23.300000
 20
106.100000
 11
25.500000
 21
106.100000
  0
LINE
  8
0
 10
25.500000
 20
106.100000
 11
25.500000
 21
105.800000
  0
LINE
  8
0
 10
23.000000
 20
108.200000
 11
24.600000
 21
108.200000
  0
LINE
  8
0
 10
24.600000
 20
108.200000
 11
24.600000
 21
108.000000
  0
LINE
  8
0
 10
24.600000
 20
108.000000
 11
23.000000
 21
108.000000
  0
LINE
  8
0
 10
23.000000
 20
108.000000
 11
23.000000
 21
108.200000
  0
LINE
  8
0
 10
23.600000
 20
108.000000
 11
23.700000
 21
107.800000
  0
LINE
  8
0
 10
23.700000
 20
107.800000
 11
23.900000
 21
107.800000
  0
LINE
  8
0
 10
23.900000
 20
107.800000
 11
24.000000
 21
108.000000
  0
LINE
  8
0
 10
23.900000
 20
107.800000
 11
23.800000
 21
106.700000
  0
LINE
  8
0
 10
23.800000
 20
106.700000
 11
23.700000
 21
107.800000
  0
LINE
  8
0
 10
9.400000
 20
98.100000
 11
8.800000
 21
106.900000
  0
LINE
  8
0
 10
8.800000
 20
106.900000
 11
4.400000
 21
106.900000
  0
LINE
  8
0
 10
4.400000
 20
106.900000
 11
3.800000
 21
95.700000
  0
LINE
  8
0
 10
16.800000
 20
98.100000
 11
16.800000
 21
98.900000
  0
LINE
  8
0
 10
18.300000
 20
98.900000
 11
18.300000
 21
98.100000
  0
LINE
  8
0
 10
19.700000
 20
98.100000
 11
19.700000
 21
98.900000
  0
LINE
  8
0
 10
8.700000
 20
98.100000
 11
6.000000
 21
95.400000
  0
LINE
  8
0
 10
6.000000
 20
95.400000
 11
6.000000
 21
95.300000
  0
LINE
  8
0
 10
6.000000
 20
95.300000
 11
8.700000
 21
98.000000
  0
INSERT
  8
0
  2
WIN
 10
23.900000
 20
90.200000
 41
0.800000
  0
LINE
  8
0
 10
6.100000
 20
96.300000
 11
6.100000
 21
95.500000
  0
LINE
  8
0
 10
7.100000
 20
97.300000
 11
7.100000
 21
96.500000
  0
LINE
  8
0
 10
8.100000
 20
98.300000
 11
8.100000
 21
97.500000
  0
LINE
  8
0
 10
8.700000
 20
98.900000
 11
6.000000
 21
96.200000
  0
LINE
  8
0
 10
8.700000
 20
98.700000
 11
6.100000
 21
96.100000
  0
LINE
  8
0
 10
8.700000
 20
98.500000
 11
6.100000
 21
95.900000
  0
LINE
  8
0
 10
8.700000
 20
98.300000
 11
6.100000
 21
95.700000
  0
LINE
  8
0
 10
6.000000
 20
95.400000
 11
5.000000
 21
95.400000
  0
LINE
  8
0
 10
5.000000
 20
95.400000
 11
5.000000
 21
95.300000
  0
LINE
  8
0
 10
5.000000
 20
95.300000
 11
6.000000
 21
95.300000
  0
LINE
  8
0
 10
5.100000
 20
95.400000
 11
5.100000
 21
96.200000
  0
LINE
  8
0
 10
5.100000
 20
96.200000
 11
6.000000
 21
96.200000
  0
LINE
  8
0
 10
6.000000
 20
96.200000
 11
6.000000
 21
95.400000
  0
LINE
  8
0
 10
6.000000
 20
95.600000
 11
5.100000
 21
95.600000
  0
LINE
  8
0
 10
5.100000
 20
95.800000
 11
6.000000
 21
95.800000
  0
LINE
  8
0
 10
6.000000
 20
96.000000
 11
5.100000
 21
96.000000
  0
LINE
  8
0
 10
6.900000
 20
96.200000
 11
9.400000
 21
96.200000
  0
LINE
  8
0
 10
6.700000
 20
96.000000
 11
9.400000
 21
96.000000
  0
LINE
  8
0
 10
6.500000
 20
95.800000
 11
9.400000
 21
95.800000
  0
LINE
  8
0
 10
6.300000
 20
95.600000
 11
9.400000
 21
95.600000
  0
LINE
  8
0
 10
6.000000
 20
95.400000
 11
9.400000
 21
95.400000
  0
LINE
  8
0
 10
9.400000
 20
95.300000
 11
6.000000
 21
95.300000
  0
LINE
  8
0
 10
9.400000
 20
92.600000
 11
6.000000
 21
92.600000
  0
LINE
  8
0
 10
6.000000
 20
92.700000
 11
9.400000
 21
92.700000
  0
LINE
  8
0
 10
6.300000
 20
92.900000
 11
9.400000
 21
92.900000
  0
LINE
  8
0
 10
6.500000
 20
93.100000
 11
9.400000
 21
93.100000
  0
LINE
  8
0
 10
6.700000
 20
93.300000
 11
9.400000
 21
93.300000
  0
LINE
  8
0
 10
6.900000
 20
93.500000
 11
9.400000
 21
93.500000
  0
LINE
  8
0
 10
6.000000
 20
93.300000
 11
5.100000
 21
93.300000
  0
LINE
  8
0
 10
5.100000
 20
93.100000
 11
6.000000
 21
93.100000
  0
LINE
  8
0
 10
6.000000
 20
92.900000
 11
5.100000
 21
92.900000
  0
LINE
  8
0
 10
6.000000
 20
93.500000
 11
6.000000
 21
92.700000
  0
LINE
  8
0
 10
5.100000
 20
93.500000
 11
6.000000
 21
93.500000
  0
LINE
  8
0
 10
5.100000
 20
92.700000
 11
5.100000
 21
93.500000
  0
LINE
  8
0
 10
5.000000
 20
92.600000
 11
6.000000
 21
92.600000
  0
LINE
  8
0
 10
5.000000
 20
92.700000
 11
5.000000
 21
92.600000
  0
LINE
  8
0
 10
6.000000
 20
92.700000
 11
5.000000
 21
92.700000
  0
LINE
  8
0
 10
8.700000
 20
95.600000
 11
6.100000
 21
93.000000
  0
LINE
  8
0
 10
8.700000
 20
95.800000
 11
6.100000
 21
93.200000
  0
LINE
  8
0
 10
8.700000
 20
96.000000
 11
6.100000
 21
93.400000
  0
LINE
  8
0
 10
8.700000
 20
96.200000
 11
6.000000
 21
93.500000
  0
LINE
  8
0
 10
8.700000
 20
96.200000
 11
8.700000
 21
95.400000
  0
LINE
  8
0
 10
8.100000
 20
95.600000
 11
8.100000
 21
94.800000
  0
LINE
  8
0
 10
7.100000
 20
94.600000
 11
7.100000
 21
93.800000
  0
LINE
  8
0
 10
6.100000
 20
93.600000
 11
6.100000
 21
92.800000
  0
LINE
  8
0
 10
6.000000
 20
92.600000
 11
8.700000
 21
95.300000
  0
LINE
  8
0
 10
6.000000
 20
92.700000
 11
6.000000
 21
92.600000
  0
LINE
  8
0
 10
8.700000
 20
95.400000
 11
6.000000
 21
92.700000
  0
LINE
  8
0
 10
8.700000
 20
95.300000
 11
9.400000
 21
95.300000
  0
LINE
  8
0
 10
8.700000
 20
95.400000
 11
8.700000
 21
95.300000
  0
LINE
  8
0
 10
9.400000
 20
95.400000
 11
8.700000
 21
95.400000
  0
LINE
  8
0
 10
8.800000
 20
96.200000
 11
8.800000
 21
95.400000
  0
LINE
  8
0
 10
8.800000
 20
93.500000
 11
8.800000
 21
92.700000
  0
LINE
  8
0
 10
8.700000
 20
92.700000
 11
8.700000
 21
92.600000
  0
LINE
  8
0
 10
8.700000
 20
92.700000
 11
6.000000
 21
90.000000
  0
LINE
  8
0
 10
6.000000
 20
90.000000
 11
6.000000
 21
89.900000
  0
LINE
  8
0
 10
6.000000
 20
89.900000
 11
8.700000
 21
92.600000
  0
LINE
  8
0
 10
6.100000
 20
90.900000
 11
6.100000
 21
90.100000
  0
LINE
  8
0
 10
7.100000
 20
91.900000
 11
7.100000
 21
91.100000
  0
LINE
  8
0
 10
8.100000
 20
92.900000
 11
8.100000
 21
92.100000
  0
LINE
  8
0
 10
8.700000
 20
93.500000
 11
8.700000
 21
92.700000
  0
LINE
  8
0
 10
8.700000
 20
93.500000
 11
6.000000
 21
90.800000
  0
LINE
  8
0
 10
8.700000
 20
93.300000
 11
6.100000
 21
90.700000
  0
LINE
  8
0
 10
8.700000
 20
93.100000
 11
6.100000
 21
90.500000
  0
LINE
  8
0
 10
8.700000
 20
92.900000
 11
6.100000
 21
90.300000
  0
LINE
  8
0
 10
6.000000
 20
93.500000
 11
6.000000
 21
92.700000
  0
LINE
  8
0
 10
6.100000
 20
93.600000
 11
6.100000
 21
92.800000
  0
LINE
  8
0
 10
6.000000
 20
92.700000
 11
6.000000
 21
92.600000
  0
LINE
  8
0
 10
6.000000
 20
90.000000
 11
5.200000
 21
89.200000
  0
LINE
  8
0
 10
5.300000
 20
89.200000
 11
6.000000
 21
89.900000
  0
LINE
  8
0
 10
6.100000
 20
90.300000
 11
5.300000
 21
89.500000
  0
LINE
  8
0
 10
6.100000
 20
90.500000
 11
5.300000
 21
89.700000
  0
LINE
  8
0
 10
6.100000
 20
90.700000
 11
5.300000
 21
89.900000
  0
LINE
  8
0
 10
6.000000
 20
90.800000
 11
5.300000
 21
90.100000
  0
LINE
  8
0
 10
5.400000
 20
90.200000
 11
5.400000
 21
89.400000
  0
LINE
  8
0
 10
7.700000
 20
90.000000
 11
7.700000
 21
89.200000
  0
LINE
  8
0
 10
9.300000
 20
90.000000
 11
2.700000
 21
90.000000
  0
LINE
  8
0
 10
1.800000
 20
90.000000
 11
-3.000000
 21
90.000000
  0
LINE
  8
0
 10
-3.000000
 20
89.800000
 11
1.800000
 21
89.800000
  0
LINE
  8
0
 10
2.700000
 20
89.800000
 11
9.300000
 21
89.800000
  0
LINE
  8
0
 10
9.200000
 20
89.600000
 11
2.700000
 21
89.600000
  0
LINE
  8
0
 10
1.800000
 20
89.600000
 11
-3.000000
 21
89.600000
  0
LINE
  8
0
 10
-3.000000
 20
89.400000
 11
1.800000
 21
89.400000
  0
LINE
  8
0
 10
2.700000
 20
89.400000
 11
9.000000
 21
89.400000
  0
LINE
  8
0
 10
1.100000
 20
89.200000
 11
-3.100000
 21
89.200000
  0
LINE
  8
0
 10
-3.100000
 20
89.200000
 11
-3.100000
 21
89.100000
  0
LINE
  8
0
 10
-3.100000
 20
89.100000
 11
1.100000
 21
89.100000
  0
LINE
  8
0
 10
-3.000000
 20
90.000000
 11
-3.000000
 21
89.200000
  0
LINE
  8
0
 10
-1.400000
 20
89.200000
 11
-1.400000
 21
90.000000
  0
LINE
  8
0
 10
0.300000
 20
90.000000
 11
0.300000
 21
89.200000
  0
LINE
  8
0
 10
4.600000
 20
90.000000
 11
4.600000
 21
89.200000
  0
LINE
  8
0
 10
7.400000
 20
93.500000
 11
7.400000
 21
92.700000
  0
LINE
  8
0
 10
7.400000
 20
95.400000
 11
7.400000
 21
96.200000
  0
LINE
  8
0
 10
-2.500000
 20
89.100000
 11
-2.500000
 21
87.900000
  0
LINE
  8
0
 10
-0.700000
 20
87.900000
 11
-0.700000
 21
89.100000
  0
LINE
  8
0
 10
8.000000
 20
93.900000
 11
8.000000
 21
94.300000
  0
LINE
  8
0
 10
8.000000
 20
94.300000
 11
4.100000
 21
94.600000
  0
LINE
  8
0
 10
4.100000
 20
94.600000
 11
3.800000
 21
94.600000
  0
LINE
  8
0
 10
3.800000
 20
94.600000
 11
1.700000
 21
94.200000
  0
LINE
  8
0
 10
1.700000
 20
94.200000
 11
1.700000
 21
93.900000
  0
LINE
  8
0
 10
1.700000
 20
93.900000
 11
8.000000
 21
93.900000
  0
LINE
  8
0
 10
2.000000
 20
93.900000
 11
1.800000
 21
91.800000
  0
LINE
  8
0
 10
2.700000
 20
91.800000
 11
2.500000
 21
93.900000
  0
LINE
  8
0
 10
2.700000
 20
89.200000
 11
2.700000
 21
91.800000
  0
LINE
  8
0
 10
2.700000
 20
91.800000
 11
1.800000
 21
91.800000
  0
LINE
  8
0
 10
1.800000
 20
91.800000
 11
1.800000
 21
89.200000
  0
LINE
  8
0
 10
20.500000
 20
98.100000
 11
8.700000
 21
98.100000
  0
LINE
  8
0
 10
8.700000
 20
98.300000
 11
20.500000
 21
98.300000
  0
LINE
  8
0
 10
20.500000
 20
98.500000
 11
8.700000
 21
98.500000
  0
LINE
  8
0
 10
8.700000
 20
98.700000
 11
20.500000
 21
98.700000
  0
LINE
  8
0
 10
20.500000
 20
98.900000
 11
8.700000
 21
98.900000
  0
LINE
  8
0
 10
15.200000
 20
98.100000
 11
15.200000
 21
98.900000
  0
LINE
  8
0
 10
13.300000
 20
98.900000
 11
13.300000
 21
98.100000
  0
LINE
  8
0
 10
11.100000
 20
98.100000
 11
11.100000
 21
98.900000
  0
LINE
  8
0
 10
8.700000
 20
98.000000
 11
9.400000
 21
98.000000
  0
LINE
  8
0
 10
17.900000
 20
100.600000
 11
15.100000
 21
100.600000
  0
LINE
  8
0
 10
15.100000
 20
100.600000
 11
13.500000
 21
98.100000
  0
LINE
  8
0
 10
32.099980
 20
82.410139
 11
27.000000
 21
87.900000
  0
LINE
  8
0
 10
27.000000
 20
87.900000
 11
22.300000
 21
87.900000
  0
LINE
  8
0
 10
12.600000
 20
98.100000
 11
12.600000
 21
100.400000
  0
LINE
  8
0
 10
12.600000
 20
100.400000
 11
12.800000
 21
100.400000
  0
LINE
  8
0
 10
12.800000
 20
100.400000
 11
12.800000
 21
98.100000
  0
LINE
  8
0
 10
12.800000
 20
98.100000
 11
12.600000
 21
98.100000
  0
LINE
  8
0
 10
12.700000
 20
100.400000
 11
12.700000
 21
110.900000
  0
LINE
  8
0
 10
12.700000
 20
106.800000
 11
14.300000
 21
108.800000
  0
LINE
  8
0
 10
12.700000
 20
106.800000
 11
11.100000
 21
108.800000
  0
LINE
  8
0
 10
12.973171
 20
107.141463
 11
12.700000
 21
108.000000
  0
LINE
  8
0
 10
12.700000
 20
108.000000
 11
12.387805
 21
107.190244
  0
LINE
  8
0
 10
12.600000
 20
99.400000
 11
12.100000
 21
98.100000
  0
LINE
  8
0
 10
11.900000
 20
98.100000
 11
12.600000
 21
100.000000
  0
LINE
  8
0
 10
12.800000
 20
100.000000
 11
13.600000
 21
98.100000
  0
LINE
  8
0
 10
13.400000
 20
98.100000
 11
12.800000
 21
99.400000
  0
LINE
  8
0
 10
11.500000
 20
98.100000
 11
10.900000
 21
99.400000
  0
LINE
  8
0
 10
10.900000
 20
100.000000
 11
11.700000
 21
98.100000
  0
LINE
  8
0
 10
10.000000
 20
98.100000
 11
10.700000
 21
100.000000
  0
LINE
  8
0
 10
10.700000
 20
99.400000
 11
10.200000
 21
98.100000
  0
LINE
  8
0
 10
10.800000
 20
108.000000
 11
10.487805
 21
107.190244
  0
LINE
  8
0
 10
11.073171
 20
107.141463
 11
10.800000
 21
108.000000
  0
LINE
  8
0
 10
10.800000
 20
106.800000
 11
9.200000
 21
108.800000
  0
LINE
  8
0
 10
10.800000
 20
106.800000
 11
12.400000
 21
108.800000
  0
LINE
  8
0
 10
10.800000
 20
100.400000
 11
10.800000
 21
110.900000
  0
LINE
  8
0
 10
10.900000
 20
98.100000
 11
10.700000
 21
98.100000
  0
LINE
  8
0
 10
10.900000
 20
100.400000
 11
10.900000
 21
98.100000
  0
LINE
  8
0
 10
10.700000
 20
100.400000
 11
10.900000
 21
100.400000
  0
LINE
  8
0
 10
10.700000
 20
98.100000
 11
10.700000
 21
100.400000
  0
LINE
  8
0
 10
12.700000
 20
110.900000
 11
12.700000
 21
115.400000
  0
LINE
  8
0
 10
12.700000
 20
110.900000
 11
13.500000
 21
113.100000
  0
LINE
  8
0
 10
13.100000
 20
113.100000
 11
12.700000
 21
110.900000
  0
LINE
  8
0
 10
12.700000
 20
110.900000
 11
12.300000
 21
113.100000
  0
LINE
  8
0
 10
12.700000
 20
110.900000
 11
11.900000
 21
113.100000
  0
LINE
  8
0
 10
10.800000
 20
102.600000
 11
9.700000
 21
100.300000
  0
LINE
  8
0
 10
12.700000
 20
102.800000
 11
9.700000
 21
100.300000
  0
LINE
  8
0
 10
9.700000
 20
100.300000
 11
9.600000
 21
100.300000
  0
LINE
  8
0
 10
9.600000
 20
100.300000
 11
9.600000
 21
98.100000
  0
LINE
  8
0
 10
9.900000
 20
98.200000
 11
9.900000
 21
100.300000
  0
LINE
  8
0
 10
9.900000
 20
100.300000
 11
9.700000
 21
100.300000
  0
LINE
  8
0
 10
21.900000
 20
106.700000
 11
21.900000
 21
112.100000
  0
LINE
  8
0
 10
21.900000
 20
112.100000
 11
22.200000
 21
112.100000
  0
LINE
  8
0
 10
22.200000
 20
112.100000
 11
22.200000
 21
106.700000
  0
LINE
  8
0
 10
22.200000
 20
110.300000
 11
22.600000
 21
110.300000
  0
LINE
  8
0
 10
22.600000
 20
110.300000
 11
22.600000
 21
109.200000
  0
LINE
  8
0
 10
22.600000
 20
109.200000
 11
22.200000
 21
109.200000
  0
LINE
  8
0
 10
22.400000
 20
109.200000
 11
22.400000
 21
110.300000
  0
LINE
  8
0
 10
22.200000
 20
110.600000
 11
22.600000
 21
110.600000
  0
LINE
  8
0
 10
22.600000
 20
110.600000
 11
22.600000
 21
110.800000
  0
LINE
  8
0
 10
22.600000
 20
110.800000
 11
22.500000
 21
110.800000
  0
LINE
  8
0
 10
22.500000
 20
110.800000
 11
22.500000
 21
110.600000
  0
LINE
  8
0
 10
22.000000
 20
112.100000
 11
22.000000
 21
112.400000
  0
LINE
  8
0
 10
22.000000
 20
112.400000
 11
21.900000
 21
112.400000
  0
LINE
  8
0
 10
21.900000
 20
112.400000
 11
21.900000
 21
112.600000
  0
LINE
  8
0
 10
21.900000
 20
112.600000
 11
22.200000
 21
112.600000
  0
LINE
  8
0
 10
22.200000
 20
112.600000
 11
22.200000
 21
112.400000
  0
LINE
  8
0
 10
22.200000
 20
112.400000
 11
22.100000
 21
112.400000
  0
LINE
  8
0
 10
22.100000
 20
112.400000
 11
22.100000
 21
112.100000
  0
LINE
  8
0
 10
21.900000
 20
109.700000
 11
20.300000
 21
109.700000
  0
LINE
  8
0
 10
20.300000
 20
109.700000
 11
21.900000
 21
109.400000
  0
ARC
  8
0
 10
37.317757
 20
105.902804
 40
17.436248
 50
167.421560
 51
195.306295
  0
ARC
  8
0
 10
20.492330
 20
96.553690
 40
13.032037
 50
90.957693
 51
99.684702
  0
ARC
  8
0
 10
21.235714
 20
108.292857
 40
3.137544
 50
159.337088
 51
194.637337
  0
ARC
  8
0
 10
19.600000
 20
103.100000
 40
4.617359
 50
85.030259
 51
107.650124
  0
ARC
  8
0
 10
40.930938
 20
106.044721
 40
20.952248
 50
169.952905
 51
192.807803
  0
CIRCLE
  8
0
 10
26.450000
 20
103.600000
 40
0.460977
  0
LINE
  8
0
 10
26.100000
 20
103.100000
 11
26.900000
 21
103.100000
  0
LINE
  8
0
 10
26.900000
 20
103.100000
 11
26.900000
 21
102.900000
  0
LINE
  8
0
 10
26.900000
 20
102.900000
 11
26.100000
 21
102.900000
  0
LINE
  8
0
 10
26.100000
 20
102.900000
 11
26.100000
 21
103.100000
  0
LINE
  8
0
 10
26.900000
 20
103.000000
 11
27.300000
 21
103.000000
  0
LINE
  8
0
 10
27.300000
 20
103.000000
 11
26.900000
 21
102.900000
  0
LINE
  8
0
 10
27.300000
 20
103.000000
 11
27.300000
 21
107.000000
  0
LINE
  8
0
 10
26.700000
 20
103.100000
 11
26.600000
 21
106.900000
  0
LINE
  8
0
 10
26.600000
 20
106.900000
 11
26.500000
 21
106.900000
  0
LINE
  8
0
 10
26.500000
 20
106.900000
 11
26.400000
 21
103.100000
  0
LINE
  8
0
 10
26.700000
 20
106.900000
 11
26.400000
 21
106.900000
  0
LINE
  8
0
 10
26.400000
 20
106.900000
 11
26.400000
 21
107.700000
  0
LINE
  8
0
 10
26.400000
 20
107.700000
 11
26.700000
 21
107.700000
  0
LINE
  8
0
 10
26.700000
 20
107.700000
 11
26.700000
 21
106.900000
  0
LINE
  8
0
 10
26.600000
 20
107.700000
 11
26.600000
 21
109.900000
  0
LINE
  8
0
 10
26.200000
 20
102.900000
 11
26.200000
 21
100.900000
  0
LINE
  8
0
 10
26.200000
 20
100.900000
 11
26.400000
 21
100.900000
  0
LINE
  8
0
 10
26.400000
 20
100.900000
 11
26.400000
 21
102.900000
  0
LINE
  8
0
 10
24.600000
 20
99.100000
 11
24.600000
 21
98.700000
  0
LINE
  8
0
 10
24.600000
 20
98.700000
 11
24.800000
 21
98.700000
  0
LINE
  8
0
 10
24.800000
 20
98.700000
 11
24.800000
 21
99.100000
  0
LINE
  8
0
 10
24.800000
 20
99.100000
 11
24.600000
 21
99.100000
  0
LINE
  8
0
 10
24.600000
 20
98.400000
 11
24.800000
 21
98.400000
  0
LINE
  8
0
 10
24.800000
 20
98.400000
 11
24.800000
 21
98.000000
  0
LINE
  8
0
 10
24.800000
 20
98.000000
 11
24.600000
 21
98.000000
  0
LINE
  8
0
 10
24.600000
 20
98.000000
 11
24.600000
 21
98.400000
  0
LINE
  8
0
 10
4.900000
 20
106.900000
 11
4.900000
 21
107.700000
  0
LINE
  8
0
 10
4.900000
 20
107.700000
 11
5.400000
 21
107.700000
  0
LINE
  8
0
 10
5.400000
 20
107.700000
 11
5.400000
 21
106.900000
  0
LINE
  8
0
 10
6.100000
 20
107.700000
 11
6.100000
 21
106.900000
  0
LINE
  8
0
 10
5.600000
 20
107.700000
 11
6.100000
 21
107.700000
  0
LINE
  8
0
 10
5.600000
 20
106.900000
 11
5.600000
 21
107.700000
  0
LINE
  8
0
 10
6.300000
 20
106.900000
 11
6.300000
 21
107.700000
  0
LINE
  8
0
 10
6.300000
 20
107.700000
 11
6.800000
 21
107.700000
  0
LINE
  8
0
 10
6.800000
 20
107.700000
 11
6.800000
 21
106.900000
  0
LINE
  8
0
 10
7.400000
 20
106.900000
 11
7.400000
 21
107.900000
  0
LINE
  8
0
 10
7.400000
 20
107.900000
 11
8.400000
 21
107.900000
  0
LINE
  8
0
 10
8.400000
 20
107.900000
 11
8.400000
 21
106.900000
  0
LINE
  8
0
 10
-3.000000
 20
90.000000
 11
-3.000000
 21
91.000000
  0
LINE
  8
0
 10
-3.000000
 20
91.000000
 11
-2.800000
 21
91.000000
  0
LINE
  8
0
 10
-2.800000
 20
91.000000
 11
-2.800000
 21
91.300000
  0
LINE
  8
0
 10
-2.800000
 20
91.300000
 11
-3.200000
 21
91.300000
  0
LINE
  8
0
 10
-3.200000
 20
91.300000
 11
-3.200000
 21
91.000000
  0
LINE
  8
0
 10
-3.200000
 20
91.000000
 11
-3.000000
 21
91.000000
  0
LINE
  8
0
 10
-3.000000
 20
90.800000
 11
-3.200000
 21
90.800000
  0
LINE
  8
0
 10
-3.200000
 20
90.800000
 11
-3.100000
 21
90.300000
  0
LINE
  8
0
 10
-3.100000
 20
90.300000
 11
-3.000000
 21
90.300000
  0
LINE
  8
0
 10
-5.200000
 20
87.900000
 11
-6.000000
 21
90.000000
  0
LINE
  8
0
 10
-6.000000
 20
90.000000
 11
-6.100000
 21
89.900000
  0
LINE
  8
0
 10
-6.100000
 20
89.900000
 11
-5.300000
 21
87.900000
  0
ARC
  8
0
 10
-3.771429
 20
89.671429
 40
2.339763
 50
174.393834
 51
229.208985
  0
ARC
  8
0
 10
-6.450000
 20
89.210000
 40
0.773692
 50
63.103763
 51
165.784147
  0
ARC
  8
0
 10
-6.016667
 20
89.583333
 40
1.197451
 50
188.806793
 51
235.203974
  0
ARC
  8
0
 10
-6.200000
 20
88.400000
 40
0.538516
 50
68.198591
 51
158.198591
  0
ARC
  8
0
 10
-7.352072
 20
89.052072
 40
0.511964
 50
67.549447
 51
151.035493
  0
ARC
  8
0
 10
-11.150000
 20
86.210000
 40
4.557477
 50
27.295968
 51
42.688072
  0
ARC
  8
0
 10
-7.350000
 20
89.050000
 40
0.790569
 50
288.434949
 51
325.304846
  0
LINE
  8
0
 10
32.099980
 20
82.410139
 11
127.600000
 21
82.400032
  0
LINE
  8
0
 10
127.600000
 20
82.400000
 11
127.600000
 21
82.600000
  0
LINE
  8
0
 10
38.800000
 20
82.400000
 11
38.800000
 21
90.000000
  0
LINE
  8
0
 10
38.800000
 20
90.000000
 11
43.000000
 21
90.000000
  0
LINE
  8
0
 10
42.900000
 20
90.000000
 11
42.900000
 21
82.400000
  0
LINE
  8
0
 10
116.100000
 20
90.000000
 11
116.100000
 21
82.400000
  0
LINE
  8
0
 10
116.100000
 20
90.000000
 11
120.300000
 21
90.000000
  0
LINE
  8
0
 10
120.300000
 20
82.400000
 11
120.300000
 21
90.000000
  0
LINE
  8
0
 10
91.000000
 20
82.400000
 11
91.000000
 21
90.000000
  0
LINE
  8
0
 10
91.100000
 20
90.000000
 11
95.300000
 21
90.000000
  0
LINE
  8
0
 10
95.400000
 20
90.000000
 11
95.400000
 21
82.400000
  0
LINE
  8
0
 10
63.700000
 20
82.400000
 11
63.700000
 21
91.500000
  0
LINE
  8
0
 10
63.700000
 20
91.500000
 11
70.100000
 21
91.500000
  0
LINE
  8
0
 10
70.100000
 20
91.500000
 11
70.100000
 21
82.400000
  0
LINE
  8
0
 10
63.700000
 20
91.500000
 11
63.700000
 21
93.100000
  0
LINE
  8
0
 10
65.600000
 20
91.500000
 11
65.600000
 21
93.100000
  0
LINE
  8
0
 10
66.500000
 20
93.500000
 11
66.500000
 21
93.100000
  0
LINE
  8
0
 10
66.500000
 20
93.100000
 11
62.900000
 21
93.100000
  0
LINE
  8
0
 10
62.900000
 20
93.100000
 11
62.900000
 21
93.500000
  0
LINE
  8
0
 10
62.900000
 20
93.500000
 11
66.500000
 21
93.500000
  0
LINE
  8
0
 10
65.900000
 20
93.500000
 11
65.900000
 21
98.000000
  0
LINE
  8
0
 10
65.900000
 20
98.000000
 11
64.700000
 21
98.000000
  0
LINE
  8
0
 10
64.700000
 20
98.000000
 11
63.500000
 21
93.500000
  0
LINE
  8
0
 10
64.800000
 20
98.000000
 11
65.300000
 21
99.100000
  0
LINE
  8
0
 10
65.300000
 20
99.100000
 11
65.900000
 21
99.100000
  0
LINE
  8
0
 10
65.900000
 20
99.100000
 11
65.900000
 21
98.000000
  0
LINE
  8
0
 10
65.200000
 20
98.800000
 11
48.700000
 21
98.800000
  0
LINE
  8
0
 10
48.700000
 20
98.800000
 11
48.700000
 21
99.000000
  0
LINE
  8
0
 10
48.700000
 20
99.000000
 11
60.000000
 21
100.100000
  0
LINE
  8
0
 10
60.000000
 20
100.100000
 11
65.300000
 21
99.100000
  0
LINE
  8
0
 10
59.700000
 20
98.800000
 11
59.700000
 21
98.400000
  0
LINE
  8
0
 10
59.700000
 20
98.400000
 11
60.400000
 21
98.400000
  0
LINE
  8
0
 10
60.400000
 20
98.400000
 11
60.400000
 21
98.800000
  0
LINE
  8
0
 10
60.800000
 20
97.600000
 11
60.500000
 21
97.300000
  0
LINE
  8
0
 10
60.500000
 20
97.300000
 11
63.200000
 21
94.600000
  0
LINE
  8
0
 10
63.200000
 20
94.600000
 11
63.500000
 21
94.900000
  0
LINE
  8
0
 10
63.500000
 20
94.900000
 11
60.800000
 21
97.600000
  0
LINE
  8
0
 10
63.350000
 20
94.750000
 11
63.737344
 21
94.390041
  0
LINE
  8
0
 10
60.650000
 20
97.450000
 11
60.100000
 21
98.000000
  0
LINE
  8
0
 10
60.100000
 20
98.000000
 11
60.400000
 21
98.400000
  0
LINE
  8
0
 10
60.100000
 20
98.000000
 11
59.700000
 21
98.400000
  0
LINE
  8
0
 10
64.480913
 20
97.178423
 11
62.900000
 21
97.200000
  0
LINE
  8
0
 10
62.900000
 20
97.200000
 11
63.976349
 21
95.286307
  0
LINE
  8
0
 10
49.000000
 20
98.800000
 11
49.000000
 21
96.300000
  0
LINE
  8
0
 10
49.000000
 20
96.300000
 11
49.300000
 21
96.300000
  0
LINE
  8
0
 10
49.300000
 20
96.300000
 11
49.100000
 21
95.700000
  0
LINE
  8
0
 10
49.100000
 20
95.700000
 11
48.900000
 21
95.700000
  0
LINE
  8
0
 10
48.900000
 20
95.700000
 11
48.700000
 21
96.300000
  0
LINE
  8
0
 10
48.700000
 20
96.300000
 11
49.000000
 21
96.300000
  0
ARC
  8
0
 10
49.000000
 20
95.500000
 40
0.200000
 50
180.000000
 51
90.000000
  0
LINE
  8
0
 10
57.500000
 20
82.400000
 11
57.500000
 21
85.700000
  0
LINE
  8
0
 10
57.500000
 20
85.700000
 11
68.900000
 21
85.700000
  0
LINE
  8
0
 10
68.900000
 20
85.700000
 11
68.900000
 21
82.400000
  0
INSERT
  8
0
  2
R
 10
21.100000
 20
104.100000
  0
LINE
  8
0
 10
24.800000
 20
104.100000
 11
21.000000
 21
104.100000
  0
LINE
  8
0
 10
24.600000
 20
105.600000
 11
24.500000
 21
104.300000
  0
LINE
  8
0
 10
27.000000
 20
88.600000
 11
38.800000
 21
88.600000
  0
LINE
  8
0
 10
27.000000
 20
88.100000
 11
38.800000
 21
88.100000
  0
LINE
  8
0
 10
38.800000
 20
87.900000
 11
27.000000
 21
87.900000
  0
LINE
  8
0
 10
27.300000
 20
87.600000
 11
38.800000
 21
87.600000
  0
LINE
  8
0
 10
38.800000
 20
87.300000
 11
27.600000
 21
87.300000
  0
LINE
  8
0
 10
38.800000
 20
88.400000
 11
27.000000
 21
88.400000
  0
LINE
  8
0
 10
36.700000
 20
87.600000
 11
36.700000
 21
88.600000
  0
LINE
  8
0
 10
34.000000
 20
87.600000
 11
34.000000
 21
88.600000
  0
LINE
  8
0
 10
31.400000
 20
88.600000
 11
31.400000
 21
87.600000
  0
LINE
  8
0
 10
28.700000
 20
87.600000
 11
28.700000
 21
88.600000
  0
LINE
  8
0
 10
36.700000
 20
87.300000
 11
33.700000
 21
82.400000
  0
LINE
  8
0
 10
33.400000
 20
82.400000
 11
36.400000
 21
87.300000
  0
LINE
  8
0
 10
33.700000
 20
83.400000
 11
36.400000
 21
87.900000
  0
LINE
  8
0
 10
33.700000
 20
83.900000
 11
36.400000
 21
88.400000
  0
LINE
  8
0
 10
33.700000
 20
84.300000
 11
36.300000
 21
88.600000
  0
LINE
  8
0
 10
35.100000
 20
86.600000
 11
35.100000
 21
85.100000
  0
LINE
  8
0
 10
33.700000
 20
84.400000
 11
33.700000
 21
82.800000
  0
LINE
  8
0
 10
51.300000
 20
98.800000
 11
49.900000
 21
82.400000
  0
LINE
  8
0
 10
49.900000
 20
82.400000
 11
50.100000
 21
82.400000
  0
LINE
  8
0
 10
50.100000
 20
82.400000
 11
51.500000
 21
98.800000
  0
LINE
  8
0
 10
51.500000
 20
98.800000
 11
52.000000
 21
82.400000
  0
LINE
  8
0
 10
52.000000
 20
82.400000
 11
52.200000
 21
82.400000
  0
LINE
  8
0
 10
52.200000
 20
82.400000
 11
51.700000
 21
98.800000
  0
LINE
  8
0
 10
31.600000
 20
83.000000
 11
128.000000
 21
83.000000
  0
LINE
  8
0
 10
31.900000
 20
82.600000
 11
127.600000
 21
82.600000
  0
LINE
  8
0
 10
128.400000
 20
83.300000
 11
31.300000
 21
83.300000
  0
LINE
  8
0
 10
127.800000
 20
82.800000
 11
31.700000
 21
82.800000
  0
LINE
  8
0
 10
33.000000
 20
82.400000
 11
33.000000
 21
83.300000
  0
LINE
  8
0
 10
35.000000
 20
82.400000
 11
35.000000
 21
83.300000
  0
LINE
  8
0
 10
37.000000
 20
82.400000
 11
37.000000
 21
83.300000
  0
LINE
  8
0
 10
39.000000
 20
82.400000
 11
39.000000
 21
83.300000
  0
LINE
  8
0
 10
41.000000
 20
82.400000
 11
41.000000
 21
83.300000
  0
LINE
  8
0
 10
43.000000
 20
82.400000
 11
43.000000
 21
83.300000
  0
LINE
  8
0
 10
45.000000
 20
82.400000
 11
45.000000
 21
83.300000
  0
LINE
  8
0
 10
47.000000
 20
82.400000
 11
47.000000
 21
83.300000
  0
LINE
  8
0
 10
49.000000
 20
82.400000
 11
49.000000
 21
83.300000
  0
LINE
  8
0
 10
51.000000
 20
82.400000
 11
51.000000
 21
83.300000
  0
LINE
  8
0
 10
53.000000
 20
82.400000
 11
53.000000
 21
83.300000
  0
LINE
  8
0
 10
55.000000
 20
82.400000
 11
55.000000
 21
83.300000
  0
LINE
  8
0
 10
57.000000
 20
82.400000
 11
57.000000
 21
83.300000
  0
LINE
  8
0
 10
59.000000
 20
82.400000
 11
59.000000
 21
83.300000
  0
LINE
  8
0
 10
61.000000
 20
82.400000
 11
61.000000
 21
83.300000
  0
LINE
  8
0
 10
63.000000
 20
82.400000
 11
63.000000
 21
83.300000
  0
LINE
  8
0
 10
65.000000
 20
82.400000
 11
65.000000
 21
83.300000
  0
LINE
  8
0
 10
67.000000
 20
82.400000
 11
67.000000
 21
83.300000
  0
LINE
  8
0
 10
69.000000
 20
82.400000
 11
69.000000
 21
83.300000
  0
LINE
  8
0
 10
71.000000
 20
82.400000
 11
71.000000
 21
83.300000
  0
LINE
  8
0
 10
73.000000
 20
82.400000
 11
73.000000
 21
83.300000
  0
LINE
  8
0
 10
75.000000
 20
82.400000
 11
75.000000
 21
83.300000
  0
LINE
  8
0
 10
77.000000
 20
82.400000
 11
77.000000
 21
83.300000
  0
LINE
  8
0
 10
79.000000
 20
82.400000
 11
79.000000
 21
83.300000
  0
LINE
  8
0
 10
81.000000
 20
82.400000
 11
81.000000
 21
83.300000
  0
LINE
  8
0
 10
83.000000
 20
82.400000
 11
83.000000
 21
83.300000
  0
LINE
  8
0
 10
85.000000
 20
82.400000
 11
85.000000
 21
83.300000
  0
LINE
  8
0
 10
87.000000
 20
82.400000
 11
87.000000
 21
83.300000
  0
LINE
  8
0
 10
89.000000
 20
82.400000
 11
89.000000
 21
83.300000
  0
LINE
  8
0
 10
91.000000
 20
82.400000
 11
91.000000
 21
83.300000
  0
LINE
  8
0
 10
93.000000
 20
82.400000
 11
93.000000
 21
83.300000
  0
LINE
  8
0
 10
95.000000
 20
82.400000
 11
95.000000
 21
83.300000
  0
LINE
  8
0
 10
97.000000
 20
82.400000
 11
97.000000
 21
83.300000
  0
LINE
  8
0
 10
99.000000
 20
82.400000
 11
99.000000
 21
83.300000
  0
LINE
  8
0
 10
101.000000
 20
82.400000
 11
101.000000
 21
83.300000
  0
LINE
  8
0
 10
103.000000
 20
82.400000
 11
103.000000
 21
83.300000
  0
LINE
  8
0
 10
105.000000
 20
82.400000
 11
105.000000
 21
83.300000
  0
LINE
  8
0
 10
107.000000
 20
82.400000
 11
107.000000
 21
83.300000
  0
LINE
  8
0
 10
109.000000
 20
82.400000
 11
109.000000
 21
83.300000
  0
LINE
  8
0
 10
111.000000
 20
82.400000
 11
111.000000
 21
83.300000
  0
LINE
  8
0
 10
118.500000
 20
82.400000
 11
118.500000
 21
83.300000
  0
LINE
  8
0
 10
121.300000
 20
83.300000
 11
121.300000
 21
82.400000
  0
LINE
  8
0
 10
124.000000
 20
82.400000
 11
124.000000
 21
83.300000
  0
LINE
  8
0
 10
126.700000
 20
83.300000
 11
126.700000
 21
82.400000
  0
LINE
  8
0
 10
42.900000
 20
88.600000
 11
63.700000
 21
88.600000
  0
LINE
  8
0
 10
63.700000
 20
88.400000
 11
42.900000
 21
88.400000
  0
LINE
  8
0
 10
42.900000
 20
88.100000
 11
63.700000
 21
88.100000
  0
LINE
  8
0
 10
63.600000
 20
87.900000
 11
42.900000
 21
87.900000
  0
LINE
  8
0
 10
42.900000
 20
87.600000
 11
63.700000
 21
87.600000
  0
LINE
  8
0
 10
63.700000
 20
87.200000
 11
42.900000
 21
87.200000
  0
LINE
  8
0
 10
46.400000
 20
87.600000
 11
46.400000
 21
88.600000
  0
LINE
  8
0
 10
54.500000
 20
88.600000
 11
54.500000
 21
87.600000
  0
LINE
  8
0
 10
50.600000
 20
87.600000
 11
50.600000
 21
88.600000
  0
LINE
  8
0
 10
59.200000
 20
88.600000
 11
59.200000
 21
87.600000
  0
LINE
  8
0
 10
86.400000
 20
88.600000
 11
86.400000
 21
87.600000
  0
LINE
  8
0
 10
77.800000
 20
87.600000
 11
77.800000
 21
88.600000
  0
LINE
  8
0
 10
81.700000
 20
88.600000
 11
81.700000
 21
87.600000
  0
LINE
  8
0
 10
73.600000
 20
87.600000
 11
73.600000
 21
88.600000
  0
LINE
  8
0
 10
90.900000
 20
87.200000
 11
70.100000
 21
87.200000
  0
LINE
  8
0
 10
70.100000
 20
87.600000
 11
90.900000
 21
87.600000
  0
LINE
  8
0
 10
90.800000
 20
87.900000
 11
70.100000
 21
87.900000
  0
LINE
  8
0
 10
70.100000
 20
88.100000
 11
90.900000
 21
88.100000
  0
LINE
  8
0
 10
90.900000
 20
88.400000
 11
70.100000
 21
88.400000
  0
LINE
  8
0
 10
70.100000
 20
88.600000
 11
90.900000
 21
88.600000
  0
LINE
  8
0
 10
95.300000
 20
88.600000
 11
116.100000
 21
88.600000
  0
LINE
  8
0
 10
116.100000
 20
88.400000
 11
95.300000
 21
88.400000
  0
LINE
  8
0
 10
95.300000
 20
88.100000
 11
116.100000
 21
88.100000
  0
LINE
  8
0
 10
116.000000
 20
87.900000
 11
95.300000
 21
87.900000
  0
LINE
  8
0
 10
95.300000
 20
87.600000
 11
116.100000
 21
87.600000
  0
LINE
  8
0
 10
116.100000
 20
87.200000
 11
95.300000
 21
87.200000
  0
LINE
  8
0
 10
98.800000
 20
87.600000
 11
98.800000
 21
88.600000
  0
LINE
  8
0
 10
106.900000
 20
88.600000
 11
106.900000
 21
87.600000
  0
LINE
  8
0
 10
103.000000
 20
87.600000
 11
103.000000
 21
88.600000
  0
LINE
  8
0
 10
111.600000
 20
88.600000
 11
111.600000
 21
87.600000
  0
LINE
  8
0
 10
127.600000
 20
82.600000
 11
133.100000
 21
87.400000
  0
LINE
  8
0
 10
133.100000
 20
87.400000
 11
137.300000
 21
87.700000
  0
LINE
  8
0
 10
137.300000
 20
87.700000
 11
138.100000
 21
88.400000
  0
LINE
  8
0
 10
138.100000
 20
88.400000
 11
142.100000
 21
88.600000
  0
LINE
  8
0
 10
142.100000
 20
88.600000
 11
142.900000
 21
88.000000
  0
LINE
  8
0
 10
142.900000
 20
88.000000
 11
145.100000
 21
88.000000
  0
LINE
  8
0
 10
145.100000
 20
88.000000
 11
145.700000
 21
88.600000
  0
LINE
  8
0
 10
145.700000
 20
88.600000
 11
150.400000
 21
88.900000
  0
LINE
  8
0
 10
150.400000
 20
88.900000
 11
150.000000
 21
88.000000
  0
LINE
  8
0
 10
120.300000
 20
88.600000
 11
138.600000
 21
88.600000
  0
LINE
  8
0
 10
138.300000
 20
88.400000
 11
120.300000
 21
88.400000
  0
LINE
  8
0
 10
120.300000
 20
88.100000
 11
137.800000
 21
88.100000
  0
LINE
  8
0
 10
137.600000
 20
87.900000
 11
120.300000
 21
87.900000
  0
LINE
  8
0
 10
120.300000
 20
87.600000
 11
136.500000
 21
87.600000
  0
LINE
  8
0
 10
132.900000
 20
87.200000
 11
120.300000
 21
87.200000
  0
LINE
  8
0
 10
121.400000
 20
87.600000
 11
121.400000
 21
88.600000
  0
LINE
  8
0
 10
124.000000
 20
88.600000
 11
124.000000
 21
87.600000
  0
LINE
  8
0
 10
126.700000
 20
87.600000
 11
126.700000
 21
88.700000
  0
LINE
  8
0
 10
129.800000
 20
88.700000
 11
129.800000
 21
87.600000
  0
LINE
  8
0
 10
132.700000
 20
87.600000
 11
132.700000
 21
88.600000
  0
LINE
  8
0
 10
135.700000
 20
88.600000
 11
135.700000
 21
87.700000
  0
LINE
  8
0
 10
113.800000
 20
83.300000
 11
113.800000
 21
82.400000
  0
LINE
  8
0
 10
86.900000
 20
84.400000
 11
86.900000
 21
82.800000
  0
LINE
  8
0
 10
88.300000
 20
86.600000
 11
88.300000
 21
85.100000
  0
LINE
  8
0
 10
86.900000
 20
84.300000
 11
89.500000
 21
88.600000
  0
LINE
  8
0
 10
86.900000
 20
83.900000
 11
89.600000
 21
88.400000
  0
LINE
  8
0
 10
86.900000
 20
83.400000
 11
89.600000
 21
87.900000
  0
LINE
  8
0
 10
86.600000
 20
82.400000
 11
89.600000
 21
87.300000
  0
LINE
  8
0
 10
89.900000
 20
87.300000
 11
86.900000
 21
82.400000
  0
LINE
  8
0
 10
133.200000
 20
87.400000
 11
133.500000
 21
97.300000
  0
LINE
  8
0
 10
133.500000
 20
97.300000
 11
133.900000
 21
97.300000
  0
LINE
  8
0
 10
133.900000
 20
97.300000
 11
134.200000
 21
87.600000
  0
LINE
  8
0
 10
134.000000
 20
107.000000
 11
134.000000
 21
97.300000
  0
LINE
  8
0
 10
134.000000
 20
97.300000
 11
133.800000
 21
97.300000
  0
LINE
  8
0
 10
133.800000
 20
97.300000
 11
133.800000
 21
107.000000
  0
LINE
  8
0
 10
133.800000
 20
107.000000
 11
134.000000
 21
107.000000
  0
LINE
  8
0
 10
133.912359
 20
96.900382
 11
139.705985
 21
88.480299
  0
LINE
  8
0
 10
136.200000
 20
87.600000
 11
134.000000
 21
96.773011
  0
LINE
  8
0
 10
133.900000
 20
107.000000
 11
133.900000
 21
112.200000
  0
LINE
  8
0
 10
134.300000
 20
107.500000
 11
134.300000
 21
97.000000
  0
LINE
  8
0
 10
134.300000
 20
97.000000
 11
134.200000
 21
97.000000
  0
LINE
  8
0
 10
134.200000
 20
97.000000
 11
134.200000
 21
107.500000
  0
LINE
  8
0
 10
134.300000
 20
107.500000
 11
132.800000
 21
107.500000
  0
LINE
  8
0
 10
132.800000
 20
107.500000
 11
132.800000
 21
90.400000
  0
LINE
  8
0
 10
132.800000
 20
90.400000
 11
134.000000
 21
90.400000
  0
LINE
  8
0
 10
134.000000
 20
90.400000
 11
134.000000
 21
107.500000
  0
LINE
  8
0
 10
132.800000
 20
106.800000
 11
134.000000
 21
106.800000
  0
LINE
  8
0
 10
132.800000
 20
106.000000
 11
134.000000
 21
106.000000
  0
LINE
  8
0
 10
132.800000
 20
105.200000
 11
134.000000
 21
105.200000
  0
LINE
  8
0
 10
132.800000
 20
104.400000
 11
134.000000
 21
104.400000
  0
LINE
  8
0
 10
132.800000
 20
103.600000
 11
134.000000
 21
103.600000
  0
LINE
  8
0
 10
132.800000
 20
102.800000
 11
134.000000
 21
102.800000
  0
LINE
  8
0
 10
132.800000
 20
102.000000
 11
134.000000
 21
102.000000
  0
LINE
  8
0
 10
132.800000
 20
101.200000
 11
134.000000
 21
101.200000
  0
LINE
  8
0
 10
132.800000
 20
100.400000
 11
134.000000
 21
100.400000
  0
LINE
  8
0
 10
132.800000
 20
99.600000
 11
134.000000
 21
99.600000
  0
LINE
  8
0
 10
132.800000
 20
98.800000
 11
134.000000
 21
98.800000
  0
LINE
  8
0
 10
132.800000
 20
98.000000
 11
134.000000
 21
98.000000
  0
LINE
  8
0
 10
132.800000
 20
97.200000
 11
134.000000
 21
97.200000
  0
LINE
  8
0
 10
132.800000
 20
96.400000
 11
134.000000
 21
96.400000
  0
LINE
  8
0
 10
132.800000
 20
95.600000
 11
134.000000
 21
95.600000
  0
LINE
  8
0
 10
132.800000
 20
94.800000
 11
134.000000
 21
94.800000
  0
LINE
  8
0
 10
133.000000
 20
107.500000
 11
133.000000
 21
90.400000
  0
LINE
  8
0
 10
133.800000
 20
90.400000
 11
133.800000
 21
107.500000
  0
LINE
  8
0
 10
134.400000
 20
107.000000
 11
134.600000
 21
107.000000
  0
LINE
  8
0
 10
134.600000
 20
107.000000
 11
134.600000
 21
107.200000
  0
LINE
  8
0
 10
134.600000
 20
107.200000
 11
134.900000
 21
107.200000
  0
LINE
  8
0
 10
134.900000
 20
107.200000
 11
134.900000
 21
106.700000
  0
LINE
  8
0
 10
134.900000
 20
106.700000
 11
134.600000
 21
106.700000
  0
LINE
  8
0
 10
134.600000
 20
106.700000
 11
134.600000
 21
106.900000
  0
LINE
  8
0
 10
134.600000
 20
106.900000
 11
134.400000
 21
106.900000
  0
LINE
  8
0
 10
150.207169
 20
88.887692
 11
150.200000
 21
91.300000
  0
LINE
  8
0
 10
150.200000
 20
91.300000
 11
150.400000
 21
91.300000
  0
LINE
  8
0
 10
150.400000
 20
91.300000
 11
150.400000
 21
91.400000
  0
LINE
  8
0
 10
150.400000
 20
91.400000
 11
149.900000
 21
91.400000
  0
LINE
  8
0
 10
149.900000
 20
91.400000
 11
149.900000
 21
91.300000
  0
LINE
  8
0
 10
149.900000
 20
91.300000
 11
150.100000
 21
91.300000
  0
LINE
  8
0
 10
150.100000
 20
91.300000
 11
150.101217
 21
88.880929
  0
LINE
  8
0
 10
143.000000
 20
88.000000
 11
143.000000
 21
88.500000
  0
LINE
  8
0
 10
143.000000
 20
88.500000
 11
143.300000
 21
88.500000
  0
LINE
  8
0
 10
143.300000
 20
88.500000
 11
143.300000
 21
88.000000
  0
LINE
  8
0
 10
143.500000
 20
88.000000
 11
143.500000
 21
88.500000
  0
LINE
  8
0
 10
143.500000
 20
88.500000
 11
143.800000
 21
88.500000
  0
LINE
  8
0
 10
143.800000
 20
88.500000
 11
143.800000
 21
88.000000
  0
LINE
  8
0
 10
144.000000
 20
88.000000
 11
144.000000
 21
88.500000
  0
LINE
  8
0
 10
144.000000
 20
88.500000
 11
144.300000
 21
88.500000
  0
LINE
  8
0
 10
144.300000
 20
88.500000
 11
144.300000
 21
88.000000
  0
LINE
  8
0
 10
144.500000
 20
88.000000
 11
144.500000
 21
88.500000
  0
LINE
  8
0
 10
144.500000
 20
88.500000
 11
144.800000
 21
88.500000
  0
LINE
  8
0
 10
144.800000
 20
88.500000
 11
144.800000
 21
88.000000
  0
TEXT
  8
0
 10
136.300000
 20
85.600000
 40
0.564174
  1
ORANGE BLOSSOM
 50
2.973731
 72
     3
 11
144.000000
 21
86.000000
  0
TEXT
  8
0
 10
136.400000
 20
85.600000
 40
0.564174
  1
ORANGE BLOSSOM
 50
2.973731
 72
     3
 11
144.100000
 21
86.000000
  0
LINE
  8
0
 10
139.100000
 20
85.200000
 11
141.700000
 21
85.400000
  0
LINE
  8
0
 10
141.700000
 20
85.400000
 11
142.400000
 21
82.900000
  0
LINE
  8
0
 10
142.400000
 20
82.900000
 11
138.800000
 21
82.600000
  0
LINE
  8
0
 10
138.800000
 20
82.600000
 11
139.100000
 21
85.200000
  0
LINE
  8
0
 10
138.858248
 20
83.104818
 11
139.100000
 21
83.400000
  0
LINE
  8
0
 10
139.100000
 20
83.400000
 11
139.300000
 21
85.000000
  0
LINE
  8
0
 10
139.300000
 20
85.000000
 11
141.759199
 21
85.188576
  0
LINE
  8
0
 10
140.200000
 20
85.000000
 11
140.400000
 21
83.400000
  0
LINE
  8
0
 10
140.500000
 20
85.000000
 11
140.700000
 21
83.400000
  0
LINE
  8
0
 10
140.100000
 20
83.000000
 11
141.200000
 21
83.100000
  0
LINE
  8
0
 10
141.200000
 20
83.100000
 11
141.800000
 21
84.100000
  0
LINE
  8
0
 10
141.800000
 20
84.100000
 11
141.400000
 21
84.100000
  0
LINE
  8
0
 10
141.400000
 20
84.100000
 11
140.700000
 21
83.400000
  0
LINE
  8
0
 10
140.700000
 20
83.400000
 11
140.400000
 21
83.400000
  0
LINE
  8
0
 10
140.400000
 20
83.400000
 11
139.800000
 21
83.900000
  0
LINE
  8
0
 10
139.800000
 20
83.900000
 11
139.300000
 21
83.900000
  0
LINE
  8
0
 10
139.300000
 20
83.900000
 11
140.100000
 21
83.000000
  0
LINE
  8
HIDDEN
 10
7.100000
 20
70.100000
 11
7.100000
 21
79.900000
  0
LINE
  8
HIDDEN
 10
3.800000
 20
76.600000
 11
26.700000
 21
76.600000
  0
LINE
  8
HIDDEN
 10
26.700000
 20
79.900000
 11
26.700000
 21
70.100000
  0
LINE
  8
HIDDEN
 10
7.100000
 20
71.000000
 11
10.000000
 21
71.000000
  0
LINE
  8
HIDDEN
 10
10.000000
 20
71.000000
 11
10.000000
 21
71.900000
  0
LINE
  8
HIDDEN
 10
10.000000
 20
71.900000
 11
24.100000
 21
71.900000
  0
LINE
  8
HIDDEN
 10
24.100000
 20
71.900000
 11
26.700000
 21
71.400000
  0
LINE
  8
HIDDEN
 10
24.100000
 20
71.900000
 11
24.100000
 21
70.100000
  0
LINE
  8
HIDDEN
 10
25.100000
 20
71.500000
 11
25.100000
 21
70.100000
  0
LINE
  8
HIDDEN
 10
15.700000
 20
71.800000
 11
15.700000
 21
70.100000
  0
LINE
  8
HIDDEN
 10
16.500000
 20
70.100000
 11
16.500000
 21
71.700000
  0
LINE
  8
HIDDEN
 10
22.700000
 20
71.900000
 11
22.300000
 21
73.300000
  0
LINE
  8
HIDDEN
 10
22.300000
 20
73.300000
 11
22.300000
 21
76.100000
  0
LINE
  8
HIDDEN
 10
22.300000
 20
76.100000
 11
22.700000
 21
76.700000
  0
LINE
  8
HIDDEN
 10
22.700000
 20
76.700000
 11
22.700000
 21
77.200000
  0
LINE
  8
HIDDEN
 10
22.700000
 20
77.200000
 11
22.300000
 21
77.600000
  0
LINE
  8
HIDDEN
 10
22.300000
 20
77.600000
 11
22.300000
 21
78.500000
  0
LINE
  8
HIDDEN
 10
22.300000
 20
78.500000
 11
17.600000
 21
78.500000
  0
LINE
  8
HIDDEN
 10
17.600000
 20
78.500000
 11
17.600000
 21
77.800000
  0
LINE
  8
HIDDEN
 10
17.600000
 20
77.800000
 11
16.500000
 21
77.800000
  0
LINE
  8
HIDDEN
 10
16.500000
 20
77.800000
 11
15.900000
 21
77.300000
  0
LINE
  8
HIDDEN
 10
15.900000
 20
77.300000
 11
15.900000
 21
76.600000
  0
LINE
  8
HIDDEN
 10
15.900000
 20
76.600000
 11
16.300000
 21
76.100000
  0
LINE
  8
HIDDEN
 10
16.300000
 20
76.100000
 11
16.300000
 21
75.300000
  0
LINE
  8
HIDDEN
 10
16.300000
 20
75.300000
 11
17.900000
 21
75.200000
  0
LINE
  8
HIDDEN
 10
17.900000
 20
75.200000
 11
18.300000
 21
75.900000
  0
LINE
  8
HIDDEN
 10
22.300000
 20
73.300000
 11
17.300000
 21
73.300000
  0
LINE
  8
HIDDEN
 10
17.300000
 20
75.200000
 11
17.300000
 21
73.300000
  0
LINE
  8
HIDDEN
 10
17.300000
 20
73.300000
 11
17.100000
 21
71.900000
  0
LINE
  8
HIDDEN
 10
2.800000
 20
72.700000
 11
17.200000
 21
72.700000
  0
LINE
  8
HIDDEN
 10
17.100000
 20
72.100000
 11
2.800000
 21
72.100000
  0
LINE
  8
HIDDEN
 10
5.700000
 20
72.400000
 11
14.800000
 21
72.400000
  0
LINE
  8
HIDDEN
 10
7.100000
 20
75.400000
 11
13.300000
 21
75.400000
  0
LINE
  8
HIDDEN
 10
13.300000
 20
75.400000
 11
13.300000
 21
80.000000
  0
LINE
  8
HIDDEN
 10
13.300000
 20
76.100000
 11
9.000000
 21
76.100000
  0
LINE
  8
HIDDEN
 10
9.000000
 20
76.100000
 11
9.000000
 21
75.400000
  0
LINE
  8
HIDDEN
 10
9.000000
 20
76.100000
 11
8.100000
 21
76.100000
  0
LINE
  8
HIDDEN
 10
8.100000
 20
76.100000
 11
8.100000
 21
77.700000
  0
LINE
  8
HIDDEN
 10
8.100000
 20
77.700000
 11
9.500000
 21
77.700000
  0
LINE
  8
HIDDEN
 10
9.500000
 20
76.100000
 11
9.500000
 21
78.700000
  0
LINE
  8
HIDDEN
 10
9.500000
 20
78.700000
 11
10.000000
 21
78.700000
  0
LINE
  8
HIDDEN
 10
10.000000
 20
78.700000
 11
10.000000
 21
78.900000
  0
LINE
  8
HIDDEN
 10
10.000000
 20
78.900000
 11
12.300000
 21
78.900000
  0
LINE
  8
HIDDEN
 10
12.300000
 20
78.900000
 11
12.300000
 21
78.700000
  0
LINE
  8
HIDDEN
 10
12.300000
 20
78.700000
 11
12.800000
 21
78.700000
  0
LINE
  8
HIDDEN
 10
12.800000
 20
78.700000
 11
12.800000
 21
76.100000
  0
LINE
  8
HIDDEN
 10
13.300000
 20
76.300000
 11
16.200000
 21
76.300000
  0
LINE
  8
HIDDEN
 10
18.200000
 20
78.500000
 11
18.200000
 21
79.400000
  0
LINE
  8
HIDDEN
 10
21.700000
 20
78.500000
 11
21.700000
 21
79.400000
  0
LINE
  8
HIDDEN
 10
22.700000
 20
79.400000
 11
17.000000
 21
79.400000
  0
LINE
  8
HIDDEN
 10
17.000000
 20
80.800000
 11
22.700000
 21
80.800000
  0
ARC
  8
HIDDEN
 10
16.906250
 20
80.100000
 40
0.706250
 50
82.371850
 51
277.628150
  0
ARC
  8
HIDDEN
 10
22.800000
 20
80.100000
 40
0.707107
 50
261.869898
 51
98.130102
  0
CIRCLE
  8
HIDDEN
 10
15.350000
 20
79.350000
 40
1.051190
  0
LINE
  8
HIDDEN
 10
17.600000
 20
78.400000
 11
15.900000
 21
78.400000
  0
LINE
  8
HIDDEN
 10
15.000000
 20
78.400000
 11
15.000000
 21
77.300000
  0
LINE
  8
HIDDEN
 10
15.000000
 20
77.300000
 11
15.900000
 21
77.300000
  0
LINE
  8
HIDDEN
 10
17.000000
 20
76.300000
 11
19.600000
 21
76.300000
  0
LINE
  8
HIDDEN
 10
19.600000
 20
76.300000
 11
19.600000
 21
75.700000
  0
LINE
  8
HIDDEN
 10
19.600000
 20
75.700000
 11
17.000000
 21
75.700000
  0
LINE
  8
HIDDEN
 10
17.000000
 20
75.700000
 11
17.000000
 21
76.300000
  0
LINE
  8
HIDDEN
 10
1.100000
 20
88.900000
 11
27.000000
 21
88.900000
  0
LINE
  8
HIDDEN
 10
9.400000
 20
91.700000
 11
27.000000
 21
91.700000
  0
LINE
  8
HIDDEN
 10
9.400000
 20
94.600000
 11
27.000000
 21
94.600000
  0
LINE
  8
HIDDEN
 10
-5.078534
 20
86.554165
 11
28.000000
 21
86.500000
  0
LINE
  8
HIDDEN
 10
27.000000
 20
87.600000
 11
27.000000
 21
80.000000
  0
LINE
  8
HIDDEN
 10
27.000000
 20
83.500000
 11
-4.576583
 21
83.503853
  0
LINE
  8
HIDDEN
 10
27.000000
 20
83.500000
 11
32.099980
 21
82.410139
  0
LINE
  8
HIDDEN
 10
7.100000
 20
80.000000
 11
7.100000
 21
87.900000
  0
LINE
  8
HIDDEN
 10
13.300000
 20
80.000000
 11
13.300000
 21
87.900000
  0
LINE
  8
HIDDEN
 10
2.600000
 20
80.000000
 11
2.600000
 21
87.900000
  0
LINE
  8
HIDDEN
 10
24.099976
 20
83.500354
 11
24.099976
 21
80.000000
  0
LINE
  8
HIDDEN
 10
-0.500000
 20
87.900000
 11
-0.500537
 21
83.503356
  0
LINE
  8
HIDDEN
 10
138.394154
 20
77.600502
 11
140.200000
 21
77.600000
  0
LINE
  8
HIDDEN
 10
140.200000
 20
77.600000
 11
140.200000
 21
80.000000
  0
LINE
  8
HIDDEN
 10
138.394154
 20
77.600502
 11
123.800000
 21
77.600000
  0
LINE
  8
HIDDEN
 10
123.800000
 20
80.000000
 11
123.800000
 21
70.000000
  0
LINE
  8
HIDDEN
 10
123.800000
 20
70.000000
 11
133.800000
 21
77.600344
  0
LINE
  8
HIDDEN
 10
123.800000
 20
77.600000
 11
133.800000
 21
70.000000
  0
LINE
  8
HIDDEN
 10
127.600000
 20
82.600000
 11
145.242478
 21
82.562832
  0
LINE
  8
HIDDEN
 10
133.800000
 20
70.000000
 11
133.826517
 21
82.586882
  0
LINE
  8
HIDDEN
 10
137.100169
 20
82.579986
 11
137.100000
 21
70.600000
  0
LINE
  8
HIDDEN
 10
137.100169
 20
82.579986
 11
133.816012
 21
77.600344
  0
LINE
  8
HIDDEN
 10
137.100098
 20
77.600457
 11
133.826517
 21
82.586882
  0
CIRCLE
  8
HIDDEN
 10
135.500000
 20
72.050000
 40
1.001249
  0
LINE
  8
HIDDEN
 10
135.410000
 20
72.050000
 11
135.590000
 21
72.050000
  0
LINE
  8
HIDDEN
 10
135.500000
 20
71.960000
 11
135.500000
 21
72.140000
  0
LINE
  8
HIDDEN
 10
148.159143
 20
76.043129
 11
140.200000
 21
80.000000
  0
LINE
  8
HIDDEN
 10
142.800000
 20
80.000000
 11
137.099995
 21
70.251176
  0
LINE
  8
HIDDEN
 10
26.700000
 20
71.400000
 11
123.800000
 21
71.400000
  0
LINE
  8
HIDDEN
 10
30.700000
 20
72.500000
 11
123.800000
 21
72.500000
  0
LINE
  8
HIDDEN
 10
30.700000
 20
72.500000
 11
30.700000
 21
80.000000
  0
LINE
  8
HIDDEN
 10
30.700000
 20
72.500000
 11
42.800000
 21
79.900000
  0
LINE
  8
HIDDEN
 10
30.700000
 20
80.000000
 11
42.800000
 21
72.500000
  0
LINE
  8
HIDDEN
 10
42.963514
 20
80.000000
 11
55.063514
 21
72.500000
  0
LINE
  8
HIDDEN
 10
42.963514
 20
72.500000
 11
55.063514
 21
79.900000
  0
LINE
  8
HIDDEN
 10
42.963514
 20
72.500000
 11
42.963514
 21
80.000000
  0
LINE
  8
HIDDEN
 10
55.227027
 20
80.000000
 11
67.327027
 21
72.500000
  0
LINE
  8
HIDDEN
 10
55.227027
 20
72.500000
 11
67.327027
 21
79.900000
  0
LINE
  8
HIDDEN
 10
55.227027
 20
72.500000
 11
55.227027
 21
80.000000
  0
LINE
  8
HIDDEN
 10
67.490541
 20
80.000000
 11
79.590541
 21
72.500000
  0
LINE
  8
HIDDEN
 10
67.490541
 20
72.500000
 11
79.590541
 21
79.900000
  0
LINE
  8
HIDDEN
 10
67.490541
 20
72.500000
 11
67.490541
 21
80.000000
  0
LINE
  8
HIDDEN
 10
79.754054
 20
80.000000
 11
91.854054
 21
72.500000
  0
LINE
  8
HIDDEN
 10
79.754054
 20
72.500000
 11
91.854054
 21
79.900000
  0
LINE
  8
HIDDEN
 10
79.754054
 20
72.500000
 11
79.754054
 21
80.000000
  0
LINE
  8
HIDDEN
 10
91.854054
 20
72.500000
 11
109.700000
 21
80.000000
  0
LINE
  8
HIDDEN
 10
109.700000
 20
80.000000
 11
109.700000
 21
72.500000
  0
LINE
  8
HIDDEN
 10
109.700000
 20
72.500000
 11
92.017568
 21
80.000000
  0
LINE
  8
HIDDEN
 10
92.017568
 20
80.000000
 11
92.017568
 21
72.500000
  0
LINE
  8
HIDDEN
 10
119.000053
 20
82.400942
 11
119.000053
 21
72.500000
  0
LINE
  8
HIDDEN
 10
119.000053
 20
76.200000
 11
122.500000
 21
76.200000
  0
LINE
  8
HIDDEN
 10
122.500000
 20
76.200000
 11
122.500000
 21
80.000000
  0
LINE
  8
HIDDEN
 10
122.500000
 20
80.000000
 11
119.000053
 21
76.200000
  0
LINE
  8
HIDDEN
 10
122.500000
 20
76.200000
 11
119.000053
 21
80.000000
  0
LINE
  8
HIDDEN
 10
119.000053
 20
80.800000
 11
30.600000
 21
80.800000
  0
LINE
  8
HIDDEN
 10
30.600000
 20
80.800000
 11
30.269520
 21
80.266826
  0
LINE
  8
0
 10
-5.400000
 20
70.000000
 11
3.200000
 21
70.000000
  0
LINE
  8
0
 10
-1.000000
 20
70.000000
 11
-1.000000
 21
70.400000
  0
LINE
  8
0
 10
-0.130000
 20
70.000000
 11
-0.130000
 21
70.400000
  0
LINE
  8
0
 10
0.740000
 20
70.000000
 11
0.740000
 21
70.400000
  0
LINE
  8
0
 10
1.610000
 20
70.000000
 11
1.610000
 21
70.400000
  0
LINE
  8
0
 10
2.480000
 20
70.000000
 11
2.480000
 21
70.400000
  0
LINE
  8
0
 10
3.350000
 20
70.000000
 11
3.350000
 21
70.400000
  0
LINE
  8
0
 10
4.220000
 20
70.000000
 11
4.220000
 21
70.400000
  0
LINE
  8
0
 10
5.090000
 20
70.000000
 11
5.090000
 21
70.400000
  0
LINE
  8
0
 10
5.960000
 20
70.000000
 11
5.960000
 21
70.400000
  0
LINE
  8
0
 10
6.830000
 20
70.000000
 11
6.830000
 21
70.400000
  0
LINE
  8
0
 10
7.700000
 20
70.000000
 11
7.700000
 21
70.400000
  0
LINE
  8
0
 10
8.570000
 20
70.000000
 11
8.570000
 21
70.400000
  0
LINE
  8
0
 10
9.440000
 20
70.000000
 11
9.440000
 21
70.400000
  0
LINE
  8
0
 10
10.310000
 20
70.000000
 11
10.310000
 21
70.400000
  0
LINE
  8
0
 10
11.180000
 20
70.000000
 11
11.180000
 21
70.400000
  0
LINE
  8
0
 10
12.050000
 20
70.000000
 11
12.050000
 21
70.400000
  0
LINE
  8
0
 10
12.920000
 20
70.000000
 11
12.920000
 21
70.400000
  0
LINE
  8
0
 10
13.790000
 20
70.000000
 11
13.790000
 21
70.400000
  0
LINE
  8
0
 10
14.660000
 20
70.000000
 11
14.660000
 21
70.400000
  0
LINE
  8
0
 10
15.530000
 20
70.000000
 11
15.530000
 21
70.400000
  0
LINE
  8
0
 10
16.400000
 20
70.000000
 11
16.400000
 21
70.400000
  0
LINE
  8
0
 10
17.270000
 20
70.000000
 11
17.270000
 21
70.400000
  0
LINE
  8
0
 10
18.140000
 20
70.000000
 11
18.140000
 21
70.400000
  0
LINE
  8
0
 10
19.010000
 20
70.000000
 11
19.010000
 21
70.400000
  0
LINE
  8
0
 10
19.880000
 20
70.000000
 11
19.880000
 21
70.400000
  0
LINE
  8
0
 10
20.750000
 20
70.000000
 11
20.750000
 21
70.400000
  0
LINE
  8
0
 10
21.620000
 20
70.000000
 11
21.620000
 21
70.400000
  0
LINE
  8
0
 10
22.490000
 20
70.000000
 11
22.490000
 21
70.400000
  0
LINE
  8
0
 10
23.360000
 20
70.000000
 11
23.360000
 21
70.400000
  0
LINE
  8
0
 10
24.230000
 20
70.000000
 11
24.230000
 21
70.400000
  0
LINE
  8
0
 10
25.100000
 20
70.000000
 11
25.100000
 21
70.400000
  0
LINE
  8
0
 10
25.970000
 20
70.000000
 11
25.970000
 21
70.400000
  0
LINE
  8
0
 10
26.840000
 20
70.000000
 11
26.840000
 21
70.400000
  0
LINE
  8
0
 10
27.710000
 20
70.000000
 11
27.710000
 21
70.400000
  0
LINE
  8
0
 10
28.580000
 20
70.000000
 11
28.580000
 21
70.400000
  0
LINE
  8
0
 10
29.450000
 20
70.000000
 11
29.450000
 21
70.400000
  0
LINE
  8
0
 10
30.320000
 20
70.000000
 11
30.320000
 21
70.400000
  0
LINE
  8
0
 10
31.190000
 20
70.000000
 11
31.190000
 21
70.400000
  0
LINE
  8
0
 10
32.060000
 20
70.000000
 11
32.060000
 21
70.400000
  0
LINE
  8
0
 10
32.930000
 20
70.000000
 11
32.930000
 21
70.400000
  0
LINE
  8
0
 10
33.800000
 20
70.000000
 11
33.800000
 21
70.400000
  0
LINE
  8
0
 10
34.670000
 20
70.000000
 11
34.670000
 21
70.400000
  0
LINE
  8
0
 10
35.540000
 20
70.000000
 11
35.540000
 21
70.400000
  0
LINE
  8
0
 10
36.410000
 20
70.000000
 11
36.410000
 21
70.400000
  0
LINE
  8
0
 10
37.280000
 20
70.000000
 11
37.280000
 21
70.400000
  0
LINE
  8
0
 10
38.150000
 20
70.000000
 11
38.150000
 21
70.400000
  0
LINE
  8
0
 10
39.020000
 20
70.000000
 11
39.020000
 21
70.400000
  0
LINE
  8
0
 10
39.890000
 20
70.000000
 11
39.890000
 21
70.400000
  0
LINE
  8
0
 10
40.760000
 20
70.000000
 11
40.760000
 21
70.400000
  0
LINE
  8
0
 10
41.630000
 20
70.000000
 11
41.630000
 21
70.400000
  0
LINE
  8
0
 10
42.500000
 20
70.000000
 11
42.500000
 21
70.400000
  0
LINE
  8
0
 10
43.370000
 20
70.000000
 11
43.370000
 21
70.400000
  0
LINE
  8
0
 10
44.240000
 20
70.000000
 11
44.240000
 21
70.400000
  0
LINE
  8
0
 10
45.110000
 20
70.000000
 11
45.110000
 21
70.400000
  0
LINE
  8
0
 10
45.980000
 20
70.000000
 11
45.980000
 21
70.400000
  0
LINE
  8
0
 10
46.850000
 20
70.000000
 11
46.850000
 21
70.400000
  0
LINE
  8
0
 10
47.720000
 20
70.000000
 11
47.720000
 21
70.400000
  0
LINE
  8
0
 10
48.590000
 20
70.000000
 11
48.590000
 21
70.400000
  0
LINE
  8
0
 10
49.460000
 20
70.000000
 11
49.460000
 21
70.400000
  0
LINE
  8
0
 10
50.330000
 20
70.000000
 11
50.330000
 21
70.400000
  0
LINE
  8
0
 10
51.200000
 20
70.000000
 11
51.200000
 21
70.400000
  0
LINE
  8
0
 10
52.070000
 20
70.000000
 11
52.070000
 21
70.400000
  0
LINE
  8
0
 10
52.940000
 20
70.000000
 11
52.940000
 21
70.400000
  0
LINE
  8
0
 10
53.810000
 20
70.000000
 11
53.810000
 21
70.400000
  0
LINE
  8
0
 10
54.680000
 20
70.000000
 11
54.680000
 21
70.400000
  0
LINE
  8
0
 10
55.550000
 20
70.000000
 11
55.550000
 21
70.400000
  0
LINE
  8
0
 10
56.420000
 20
70.000000
 11
56.420000
 21
70.400000
  0
LINE
  8
0
 10
57.290000
 20
70.000000
 11
57.290000
 21
70.400000
  0
LINE
  8
0
 10
58.160000
 20
70.000000
 11
58.160000
 21
70.400000
  0
LINE
  8
0
 10
59.030000
 20
70.000000
 11
59.030000
 21
70.400000
  0
LINE
  8
0
 10
59.900000
 20
70.000000
 11
59.900000
 21
70.400000
  0
LINE
  8
0
 10
60.770000
 20
70.000000
 11
60.770000
 21
70.400000
  0
LINE
  8
0
 10
61.640000
 20
70.000000
 11
61.640000
 21
70.400000
  0
LINE
  8
0
 10
62.510000
 20
70.000000
 11
62.510000
 21
70.400000
  0
LINE
  8
0
 10
63.380000
 20
70.000000
 11
63.380000
 21
70.400000
  0
LINE
  8
0
 10
64.250000
 20
70.000000
 11
64.250000
 21
70.400000
  0
LINE
  8
0
 10
65.120000
 20
70.000000
 11
65.120000
 21
70.400000
  0
LINE
  8
0
 10
65.990000
 20
70.000000
 11
65.990000
 21
70.400000
  0
LINE
  8
0
 10
66.860000
 20
70.000000
 11
66.860000
 21
70.400000
  0
LINE
  8
0
 10
67.730000
 20
70.000000
 11
67.730000
 21
70.400000
  0
LINE
  8
0
 10
68.600000
 20
70.000000
 11
68.600000
 21
70.400000
  0
LINE
  8
0
 10
69.470000
 20
70.000000
 11
69.470000
 21
70.400000
  0
LINE
  8
0
 10
70.340000
 20
70.000000
 11
70.340000
 21
70.400000
  0
LINE
  8
0
 10
71.210000
 20
70.000000
 11
71.210000
 21
70.400000
  0
LINE
  8
0
 10
72.080000
 20
70.000000
 11
72.080000
 21
70.400000
  0
LINE
  8
0
 10
72.950000
 20
70.000000
 11
72.950000
 21
70.400000
  0
LINE
  8
0
 10
73.820000
 20
70.000000
 11
73.820000
 21
70.400000
  0
LINE
  8
0
 10
74.690000
 20
70.000000
 11
74.690000
 21
70.400000
  0
LINE
  8
0
 10
75.560000
 20
70.000000
 11
75.560000
 21
70.400000
  0
LINE
  8
0
 10
76.430000
 20
70.000000
 11
76.430000
 21
70.400000
  0
LINE
  8
0
 10
77.300000
 20
70.000000
 11
77.300000
 21
70.400000
  0
LINE
  8
0
 10
78.170000
 20
70.000000
 11
78.170000
 21
70.400000
  0
LINE
  8
0
 10
79.040000
 20
70.000000
 11
79.040000
 21
70.400000
  0
LINE
  8
0
 10
79.910000
 20
70.000000
 11
79.910000
 21
70.400000
  0
LINE
  8
0
 10
80.780000
 20
70.000000
 11
80.780000
 21
70.400000
  0
LINE
  8
0
 10
81.650000
 20
70.000000
 11
81.650000
 21
70.400000
  0
LINE
  8
0
 10
82.520000
 20
70.000000
 11
82.520000
 21
70.400000
  0
LINE
  8
0
 10
83.390000
 20
70.000000
 11
83.390000
 21
70.400000
  0
LINE
  8
0
 10
84.260000
 20
70.000000
 11
84.260000
 21
70.400000
  0
LINE
  8
0
 10
85.130000
 20
70.000000
 11
85.130000
 21
70.400000
  0
LINE
  8
0
 10
86.000000
 20
70.000000
 11
86.000000
 21
70.400000
  0
LINE
  8
0
 10
86.870000
 20
70.000000
 11
86.870000
 21
70.400000
  0
LINE
  8
0
 10
87.740000
 20
70.000000
 11
87.740000
 21
70.400000
  0
LINE
  8
0
 10
88.610000
 20
70.000000
 11
88.610000
 21
70.400000
  0
LINE
  8
0
 10
89.480000
 20
70.000000
 11
89.480000
 21
70.400000
  0
LINE
  8
0
 10
90.350000
 20
70.000000
 11
90.350000
 21
70.400000
  0
LINE
  8
0
 10
91.220000
 20
70.000000
 11
91.220000
 21
70.400000
  0
LINE
  8
0
 10
92.090000
 20
70.000000
 11
92.090000
 21
70.400000
  0
LINE
  8
0
 10
92.960000
 20
70.000000
 11
92.960000
 21
70.400000
  0
LINE
  8
0
 10
93.830000
 20
70.000000
 11
93.830000
 21
70.400000
  0
LINE
  8
0
 10
94.700000
 20
70.000000
 11
94.700000
 21
70.400000
  0
LINE
  8
0
 10
95.570000
 20
70.000000
 11
95.570000
 21
70.400000
  0
LINE
  8
0
 10
96.440000
 20
70.000000
 11
96.440000
 21
70.400000
  0
LINE
  8
0
 10
97.310000
 20
70.000000
 11
97.310000
 21
70.400000
  0
LINE
  8
0
 10
98.180000
 20
70.000000
 11
98.180000
 21
70.400000
  0
LINE
  8
0
 10
99.050000
 20
70.000000
 11
99.050000
 21
70.400000
  0
LINE
  8
0
 10
99.920000
 20
70.000000
 11
99.920000
 21
70.400000
  0
LINE
  8
0
 10
100.790000
 20
70.000000
 11
100.790000
 21
70.400000
  0
LINE
  8
0
 10
101.660000
 20
70.000000
 11
101.660000
 21
70.400000
  0
LINE
  8
0
 10
102.530000
 20
70.000000
 11
102.530000
 21
70.400000
  0
LINE
  8
0
 10
103.400000
 20
70.000000
 11
103.400000
 21
70.400000
  0
LINE
  8
0
 10
104.270000
 20
70.000000
 11
104.270000
 21
70.400000
  0
LINE
  8
0
 10
105.140000
 20
70.000000
 11
105.140000
 21
70.400000
  0
LINE
  8
0
 10
106.010000
 20
70.000000
 11
106.010000
 21
70.400000
  0
LINE
  8
0
 10
106.880000
 20
70.000000
 11
106.880000
 21
70.400000
  0
LINE
  8
0
 10
107.750000
 20
70.000000
 11
107.750000
 21
70.400000
  0
LINE
  8
0
 10
108.620000
 20
70.000000
 11
108.620000
 21
70.400000
  0
LINE
  8
0
 10
109.490000
 20
70.000000
 11
109.490000
 21
70.400000
  0
LINE
  8
0
 10
110.360000
 20
70.000000
 11
110.360000
 21
70.400000
  0
LINE
  8
0
 10
111.230000
 20
70.000000
 11
111.230000
 21
70.400000
  0
LINE
  8
0
 10
112.100000
 20
70.000000
 11
112.100000
 21
70.400000
  0
LINE
  8
0
 10
112.970000
 20
70.000000
 11
112.970000
 21
70.400000
  0
LINE
  8
0
 10
113.840000
 20
70.000000
 11
113.840000
 21
70.400000
  0
LINE
  8
0
 10
114.710000
 20
70.000000
 11
114.710000
 21
70.400000
  0
LINE
  8
0
 10
115.580000
 20
70.000000
 11
115.580000
 21
70.400000
  0
LINE
  8
0
 10
116.450000
 20
70.000000
 11
116.450000
 21
70.400000
  0
LINE
  8
0
 10
117.320000
 20
70.000000
 11
117.320000
 21
70.400000
  0
LINE
  8
0
 10
118.190000
 20
70.000000
 11
118.190000
 21
70.400000
  0
LINE
  8
0
 10
119.060000
 20
70.000000
 11
119.060000
 21
70.400000
  0
LINE
  8
0
 10
119.930000
 20
70.000000
 11
119.930000
 21
70.400000
  0
LINE
  8
0
 10
120.800000
 20
70.000000
 11
120.800000
 21
70.400000
  0
LINE
  8
0
 10
121.670000
 20
70.000000
 11
121.670000
 21
70.400000
  0
LINE
  8
0
 10
122.540000
 20
70.000000
 11
122.540000
 21
70.400000
  0
LINE
  8
0
 10
123.410000
 20
70.000000
 11
123.410000
 21
70.400000
  0
LINE
  8
0
 10
124.280000
 20
70.000000
 11
124.280000
 21
70.400000
  0
LINE
  8
0
 10
125.150000
 20
70.000000
 11
125.150000
 21
70.400000
  0
LINE
  8
0
 10
126.020000
 20
70.000000
 11
126.020000
 21
70.400000
  0
LINE
  8
0
 10
126.890000
 20
70.000000
 11
126.890000
 21
70.400000
  0
LINE
  8
0
 10
127.760000
 20
70.000000
 11
127.760000
 21
70.400000
  0
LINE
  8
0
 10
128.630000
 20
70.000000
 11
128.630000
 21
70.400000
  0
LINE
  8
0
 10
129.500000
 20
70.000000
 11
129.500000
 21
70.400000
  0
LINE
  8
0
 10
130.370000
 20
70.000000
 11
130.370000
 21
70.400000
  0
LINE
  8
0
 10
131.240000
 20
70.000000
 11
131.240000
 21
70.400000
  0
LINE
  8
0
 10
132.110000
 20
70.000000
 11
132.110000
 21
70.400000
  0
LINE
  8
0
 10
132.980000
 20
70.000000
 11
132.980000
 21
70.400000
  0
LINE
  8
0
 10
133.850000
 20
70.000000
 11
133.850000
 21
70.400000
  0
LINE
  8
0
 10
134.720000
 20
70.000000
 11
134.720000
 21
70.400000
  0
LINE
  8
0
 10
135.590000
 20
70.000000
 11
135.590000
 21
70.400000
  0
LINE
  8
0
 10
136.460000
 20
70.000000
 11
136.460000
 21
70.400000
  0
LINE
  8
0
 10
137.330000
 20
70.000000
 11
137.330000
 21
70.400000
  0
LINE
  8
0
 10
-1.900000
 20
70.000000
 11
-1.900000
 21
70.400000
  0
LINE
  8
0
 10
-2.800000
 20
69.000000
 11
-2.800000
 21
77.300000
  0
LINE
  8
0
 10
1.600000
 20
69.900000
 11
1.600000
 21
69.500000
  0
LINE
  8
0
 10
5.950000
 20
69.900000
 11
5.950000
 21
69.500000
  0
LINE
  8
0
 10
10.300000
 20
69.900000
 11
10.300000
 21
69.500000
  0
LINE
  8
0
 10
14.650000
 20
69.900000
 11
14.650000
 21
69.500000
  0
LINE
  8
0
 10
19.000000
 20
69.900000
 11
19.000000
 21
69.500000
  0
LINE
  8
0
 10
23.350000
 20
69.900000
 11
23.350000
 21
69.500000
  0
LINE
  8
0
 10
27.700000
 20
69.900000
 11
27.700000
 21
69.500000
  0
LINE
  8
0
 10
32.050000
 20
69.900000
 11
32.050000
 21
69.500000
  0
LINE
  8
0
 10
36.400000
 20
69.900000
 11
36.400000
 21
69.500000
  0
LINE
  8
0
 10
40.750000
 20
69.900000
 11
40.750000
 21
69.500000
  0
LINE
  8
0
 10
45.100000
 20
69.900000
 11
45.100000
 21
69.500000
  0
LINE
  8
0
 10
49.450000
 20
69.900000
 11
49.450000
 21
69.500000
  0
LINE
  8
0
 10
53.800000
 20
69.900000
 11
53.800000
 21
69.500000
  0
LINE
  8
0
 10
58.150000
 20
69.900000
 11
58.150000
 21
69.500000
  0
LINE
  8
0
 10
62.500000
 20
69.900000
 11
62.500000
 21
69.500000
  0
LINE
  8
0
 10
66.850000
 20
69.900000
 11
66.850000
 21
69.500000
  0
LINE
  8
0
 10
71.200000
 20
69.900000
 11
71.200000
 21
69.500000
  0
LINE
  8
0
 10
75.550000
 20
69.900000
 11
75.550000
 21
69.500000
  0
LINE
  8
0
 10
79.900000
 20
69.900000
 11
79.900000
 21
69.500000
  0
LINE
  8
0
 10
84.250000
 20
69.900000
 11
84.250000
 21
69.500000
  0
LINE
  8
0
 10
88.600000
 20
69.900000
 11
88.600000
 21
69.500000
  0
LINE
  8
0
 10
92.950000
 20
69.900000
 11
92.950000
 21
69.500000
  0
LINE
  8
0
 10
97.300000
 20
69.900000
 11
97.300000
 21
69.500000
  0
LINE
  8
0
 10
101.650000
 20
69.900000
 11
101.650000
 21
69.500000
  0
LINE
  8
0
 10
106.000000
 20
69.900000
 11
106.000000
 21
69.500000
  0
LINE
  8
0
 10
110.350000
 20
69.900000
 11
110.350000
 21
69.500000
  0
LINE
  8
0
 10
114.700000
 20
69.900000
 11
114.700000
 21
69.500000
  0
LINE
  8
0
 10
119.050000
 20
69.900000
 11
119.050000
 21
69.500000
  0
LINE
  8
0
 10
123.400000
 20
69.900000
 11
123.400000
 21
69.500000
  0
LINE
  8
0
 10
127.750000
 20
69.900000
 11
127.750000
 21
69.500000
  0
LINE
  8
0
 10
143.330000
 20
70.000000
 11
143.330000
 21
70.400000
  0
LINE
  8
0
 10
142.460000
 20
70.000000
 11
142.460000
 21
70.400000
  0
LINE
  8
0
 10
141.590000
 20
70.000000
 11
141.590000
 21
70.400000
  0
LINE
  8
0
 10
140.720000
 20
70.000000
 11
140.720000
 21
70.400000
  0
LINE
  8
0
 10
139.850000
 20
70.000000
 11
139.850000
 21
70.400000
  0
LINE
  8
0
 10
138.980000
 20
70.000000
 11
138.980000
 21
70.400000
  0
LINE
  8
0
 10
138.110000
 20
70.000000
 11
138.110000
 21
70.400000
  0
LINE
  8
0
 10
134.800000
 20
70.000000
 11
140.900000
 21
70.000000
  0
TEXT
  8
0
 10
134.900000
 20
76.400000
 40
0.333333
  1
BOW
 72
     3
 11
135.900000
 21
76.400000
  0
TEXT
  8
0
 10
134.200000
 20
75.844444
 40
0.333333
  1
THRUSTER
  0
TEXT
  8
0
 10
134.900000
 20
75.288889
 40
0.333333
  1
ROOM
  0
TEXT
  8
0
 10
128.333333
 20
74.900000
 40
0.400000
  1
B.W
 72
     1
 11
128.800000
 21
74.900000
  0
TEXT
  8
0
 10
126.533333
 20
79.200000
 40
0.500000
  1
DRY CARGO
 72
     1
 11
128.700000
 21
79.200000
  0
TEXT
  8
0
 10
127.533333
 20
78.366667
 40
0.500000
  1
SPACE
 72
     1
 11
128.700000
 21
78.366667
  0
TEXT
  8
0
 10
137.616667
 20
79.200000
 40
0.500000
  1
CHAIN
 72
     1
 11
138.700000
 21
79.200000
  0
TEXT
  8
0
 10
137.283333
 20
78.366667
 40
0.500000
  1
LOCKER
 72
     1
 11
138.700000
 21
78.366667
  0
ARC
  8
0
 10
20.700000
 20
114.225000
 40
24.025832
 50
262.586585
 51
277.413415
  0
ARC
  8
0
 10
20.700000
 20
114.125000
 40
24.025832
 50
262.586585
 51
277.413415
  0
LINE
  8
0
 10
18.090735
 20
89.200000
 11
23.116149
 21
89.200000
  0
LINE
  8
0
 10
23.800000
 20
90.300000
 11
23.390293
 21
89.378158
  0
LINE
  8
0
 10
17.792570
 20
89.466871
 11
17.700000
 21
90.300000
  0
ARC
  8
0
 10
23.116149
 20
89.500000
 40
0.300000
 50
270.000000
 51
336.037511
  0
ARC
  8
0
 10
18.090735
 20
89.500000
 40
0.300000
 50
186.340192
 51
270.000000
  0
LINE
  8
0
 10
23.800000
 20
90.400000
 11
23.800000
 21
90.300000
  0
LINE
  8
0
 10
17.600000
 20
90.300000
 11
17.600000
 21
90.400000
  0
LINE
  8
0
 10
18.400000
 20
90.400000
 11
18.400000
 21
91.900000
  0
LINE
  8
0
 10
18.400000
 20
91.900000
 11
18.600000
 21
91.900000
  0
LINE
  8
0
 10
18.600000
 20
91.900000
 11
18.600000
 21
90.400000
  0
LINE
  8
0
 10
22.700000
 20
90.400000
 11
22.700000
 21
91.900000
  0
LINE
  8
0
 10
22.700000
 20
91.900000
 11
22.900000
 21
91.900000
  0
LINE
  8
0
 10
22.900000
 20
91.900000
 11
22.900000
 21
90.400000
  0
LINE
  8
0
 10
22.700000
 20
91.900000
 11
18.600000
 21
91.900000
  0
LINE
  8
0
 10
18.400000
 20
89.200000
 11
18.400000
 21
87.900000
  0
LINE
  8
0
 10
18.600000
 20
87.900000
 11
18.600000
 21
89.200000
  0
LINE
  8
0
 10
22.700000
 20
89.200000
 11
22.700000
 21
87.900000
  0
LINE
  8
0
 10
22.900000
 20
87.900000
 11
22.900000
 21
89.200000
  0
TEXT
  8
0
 10
23.200000
 20
57.800000
 40
6.300000
  1
TROSVIK ENGINEERING
  0
ENDSEC
  0
EOF